Afi - 99 Red Balloons

Welcome to the final page of guitar tab for Afi - 99 Red Balloons. Here you can do in two ways. First of all you can see 99 Red Balloons guitar tab right on the page. Another way is to download Afi 99 Red Balloons guitar tab to your computer and to learn it later. Also, on this page you can see some information about this tab such as band name for 99 Red Balloons, its tab type, size of file and file format. If you want to find another guitar tab for Afi, or another types of tabs please, look to the previous page using navigation link. This information will help you to learn your favorite music! Good luck!

File info:

Band name Afi
Song name 99 Red Balloons
Tab type Guitar tab
Added 04/30/2008
Size 8.35 kb
File format
Views/Loads 0/0
Rating
Please, enter the code for download:

Wrong code.
Tuning: Standard

Great song, there are like 3 other bands that do this song and the chords are all pretty much the same as these. The riff played after the intro looks hard and takes a bit of practice, but you just need to make sure you can hear the slides real well.

Intro
E|---------------------------------------------|
B|---------------------------------------------|
G|---------------------------------------------|
D|---2-222222--4-444444--7-777777--9-999999----|
A|---2-222222--4-444444--7-777777--9-999999----|
E|---0-000000--2-222222--5-555555--7-777777----|

Riff Played After Intro
E|----------------------------------------------------------|
B|----------------------------------------------------------|
G|----------------------------------------------------------|
D|--99\6-9\6-----------99\6-9\6-44-4/6--999\6-9-6-----------|
A|--77\4-7\4--4/6-4-2--77\4-7\4-22-2/4--777\4-7-4--4/6\4-2--|
E|------------2/4-2-0------------------------------2/4\2-0--|

E|---------------------------------------------------------------|
B|---------------------------------------------------------------|
G|---------------------------------------------------------------|
D|---99\6-9\6--4-44--4-44---99\6-9\6-----------99\6-9\6-44-4-6---|
A|---77\4-7\4--2-22--2-22---77\4-7\4--4/6-4-2--77\4-7\4-22-2-4---|
E|------------------------------------2/4-2-0--------------------|

E|----------------------------------------------------------------|
B|----------------------------------------------------------------|
G|----------------------------------------------------------------|
D|---99\6-9\6-----------99\6-9\6--4444-4444-----------------------|
A|---77\4-7\4--4/6-4-2--77\4-7\4--2222-2222-----------------------|
E|-------------2/4-2-0--------------------------------------------|

Verse 1
E|-------------------------------------------|
B|-------------------------------------------|
G|-------------------------------------------|
D|-------------------------------------------|
A|---22222222--44444444--77777777--99999999--|
E|---00000000--22222222--55555555--77777777--|

Bridge
E|----------------2------------5------------7-------------------|
B|----------------2------------5------------7-------------------|
G|---1------------3--3--3-3-3--6--6--6-6-6--8--8--8-8-8---------|
D|---2--2--2-2-2--4--4--4-4-4--7--7--7-7-7--9--9--9-9-9---------|
A|---2--2--2-2-2--4--4--4-4-4--7--7--7-7-7--9--9--9-9-9---------|
E|---0--0--0-0-0--2--2--2-2-2--5--5--5-5-5--7--7--7-7-7---------|


E|--------------------------------------------------------------|
B|--------------------------------------------------------------
G|--------------------------------------------------------------|
D|---99\6-9\6-----------99\6-9\6-44-4/6--99\6-9\6---------------|
A|---77\4-7\4--4/6-4-2--77\4-7\4-22-2/4--77\4-7\4--4/6-4-2------|
E|-------------2/4-2-0-----------------------------2/4-2-0------|





E|---------------------------------------------------------------|
B|---------------------------------------------------------------|
G|---------------------------------------------------------------|
D|---99\6-9\6--4-44--4-44---99\6-9\6-----------99\6-9\6-44-4/6---|
A|---77\4-7\4--2-22--2-22---77\4-7\4--4/6-4-2--77\4-7\4-22-2/4---|
E|------------------------------------2/4-2-0--------------------|

E|---------------------------------------------------------------|
B|---------------------------------------------------------------|
G|---------------------------------------------------------------|
D|---99\6-9\6-----------99\6-9\6--4444-4444----------------------|
A|---77\4-7\4--4/6-4-2--77\4-7\4--2222-2222----------------------|
E|-------------2/4-2-0-------------------------------------------|

Verse 2
E|------------------------------------------------------------------|
B|------------------------------------------------------------------|
G|------------------------------------------------------------------|
D|------------------------------------------------------------------|
A|---22222222-44444444-77777777-99999999----------------------------|
E|---00000000-22222222-55555555-77777777----------------------------|


Solo
E|----------------------------------------------------------------------|
B|------9---9--------9---------------------------9---9---------9--------|
G|---11---9---11-9-----11-9-9----9----9-11--9/11---9---11-9------11-9-9-|
D|-----------------11---------11---11-----------------------11----------|
A|----------------------------------------------------------------------|
E|----------------------------------------------------------------------|

E|---------------------------------------------------------------------|
B|------12-9----9------------------------------------------------------|
G|-----------11--------------------------------------------------------|
D|---11----------------------------------------------------------------|
A|---------------------------------------------------------------------|
E|---------------------------------------------------------------------|

Verse 3 Palm Muted
E|---------------------------------------------------------------------|
B|---------------------------------------------------------------------|
G|---------------------------------------------------------------------|
D|---------------------------------------------------------------------|
A|---22222222--44444444--77777777--99999999----------------------------|
E|---00000000--22222222--55555555--77777777----------------------------|

E|---------------------------------------------------------------------|
B|---------------------------------------------------------------------|
G|---------------------------------------------------------------------|
D|---------------------------------------------------------------------|
A|---22222222--44444444--77777777--99999999----------------------------|
E|---00000000--22222222--55555555--77777777----------------------------|

E|---------------------------------------------------------------------|
B|---------------------------------------------------------------------|
G|---------------------------------------------------------------------|
D|---------------------------------------------------------------------|
A|---22--44--xx77--99999999--------------------------------------------|
E|---00--22--xx55--77777777--------------------------------------------|

E|---------------------------------------------------------------------|
B|---------------------------------------------------------------------|
G|---------------------------------------------------------------------|
D|---------------------------------------------------------------------|
A|---22222222-44444444-77777777-99-999---------------------------------|
E|---00000000-22222222-55555555-77-777---------------------------------|


Solo 2
E|---------------------------------------------------------------------|
B|-------------------------------------------------------12-9-12-9-12--|
G|---99-11-11-999-99-11-11-999-99-11-11-999-99-11-11-999---------------|
D|---------------------------------------------------------------------|
A|---------------------------------------------------------------------|
E|---------------------------------------------------------------------|

E|---------------------------------------------------------------------|
B|---9h12-9h12-9h12-9h12-9h12-9h12-------------------------------------|
G|---------------------------------------------------------------------|
D|---------------------------------------------------------------------|
A|-----------------------------------222-44/7\-------------------------|
E|-----------------------------------000-22/5\-------------------------|

Outro

Bridge
E|----------------2------------5------------7-------------------|
B|----------------2------------5------------7-------------------|
G|---1------------3--3--3-3-3--6--6--6-6-6--8--8--8-8-8---------|
D|---2--2--2-2-2--4--4--4-4-4--7--7--7-7-7--9--9--9-9-9---------|
A|---2--2--2-2-2--4--4--4-4-4--7--7--7-7-7--9--9--9-9-9---------|
E|---0--0--0-0-0--2--2--2-2-2--5--5--5-5-5--7--7--7-7-7---------|

E|----------------2------------5------------7-------------------|
B|----------------2------------5------------7-------------------|
G|---1------------3--3--3-3-3--6--6--6-6-6--8--8----------------|
D|---2--2--2-2-2--4--4--4-4-4--7--7--7-7-7--9--9----------------|
A|---2--2--2-2-2--4--4--4-4-4--7--7--7-7-7--9--9----------------|
E|---0--0--0-0-0--2--2--2-2-2--5--5--5-5-5--7--7----------------|

Good song, any corrections or comments email me at aaron_szczotkewycz@hotmail.com