Brand New Heavies The - Back To Love

Welcome to the final page of bass tab for Brand New Heavies The - Back To Love. Here you can do in two ways. First of all you can see Back To Love bass tab right on the page. Another way is to download Brand New Heavies The Back To Love bass tab to your computer and to learn it later. Also, on this page you can see some information about this tab such as band name for Back To Love, its tab type, size of file and file format. If you want to find another bass tab for Brand New Heavies The, or another types of tabs please, look to the previous page using navigation link. This information will help you to learn your favorite music! Good luck!

File info:

Band name Brand New Heavies The
Song name Back To Love
Tab type Bass tab
Added 05/07/2008
Size 8.67 kb
File format
Views/Loads 0/2
Rating
Please, enter the code for download:

Wrong code.
The Brand New Heavies
*********************
Back To Love

Written By: J.Kincaid
Bass Player: Andrew Levy

Intro

G:|-----------------------------------|-----------------|
D:|--------3-BARS-Keys&Congas---------|--------4--3-----|
A:|--------3-BARS-Keys&Congas---------|-----------------|
E:|-----------------------------------|-------2--2--23-4|

  "yeah,yeah,yeah..."
G:|-----------------|-----------------|-----4-4po3------|
D:|-----4-4po3------|-----4-4po3------|------------4----|
A:|------------4----|------------4-2-4|---4----------4--|
E:|--------------2-4|-----------------|----------------2|

G:|-----------------|
D:|-------4--3------|
A:|-----------------|
E:|-2-2--2--2--23-4-|

Verse 1

  "It seems to me..."
G:|-----------------|-----------------|-----4-4po3------|
D:|-----4-4po3------|-----4-4po3------|------------4----|
A:|------------4----|------------4-2-4|--------------4--|
E:|--------------2-4|---4-------------|----------------2|

  		    "Watching your..."
G:|-----------------|-----------------|-----------------|
D:|-------4--3------|-----4-4po3------|-----4-4po3------|
A:|-----------------|------------4----|------------4-2-4|
E:|-2-2--2--2--23-4-|--------------2-4|-----------------|

				      "City living..."
G:|-----4-4po3------|-----------------|-----------------|
D:|------------4----|-------4--3------|-----4-4po3------|
A:|---4----------4--|-----------------|------------4----|
E:|----------------2|-2-2--2--2--23-4-|--------------2-4|


G:|-----------------|-----4-4po3------|-----------------|
D:|-----4-4po3------|------------4----|-------4--3------|
A:|------------4-2-4|--------------4--|-----------------|
E:|---4-------------|----------------2|-2-2--2--2---2-4-|

  "Time to..."
G:|-----------------|-----------------|-----4-4po3------|
D:|-----4-4po3------|-----4-4po3------|------------4----|
A:|------------4----|------------4-2-4|--------------4--|
E:|--------------2-4|---4-------------|----------------2|

G:|-----------------||
D:|-----------------||
A:|-----------------||
E:|-2-2----2-2--3-4-||

Chorus 1

G:|-----3-4-5-------|-----3-4-5-------|-----5-6-7-------|
D:|-----------6-----|-----------------|-----------------|
A:|-----------------|-----------------|-----------------|
E:|-------------2-4-|-----------4-5-6-|-----------4-5-6-|

G:|-----5-6-7-------|-----------------|-----------------|
D:|-----------------|-----------------|-----------------|
A:|-----------------|-4---4---4-4-5-6-|-6---------------|
E:|------------6----|-------4---------|----3---4-4/6-4--|

G:|-----------------|-----------------|
D:|-----------------|---44-6--6-------|
A:|--------------4-4|/6---------6-----|
E:|---6-4-44--22----|---------------4-|

G:|-----3-4-5-------|-----3-4-5-------|-----5-6-7-------|
D:|-----------6-----|-----------------|-----------------|
A:|-----------------|-----------------|-----------------|
E:|-------------2-4-|-----------4-5-6-|-----------4-5-6-|

G:|-----5-6-7-------|-----------------|-----------------|
D:|-----------------|-----------------|-----------------|
A:|-----------------|-4---4---4-4-5-6-|-6---------------|
E:|------------6----|-------4---------|----3---4-4/6-4--|

G:|-----------------|-----------------||
D:|-----66--4-4-----|-----------------||
A:|-------------6---|-----------------||
E:|---4-----------4-|---4--2--4/7---4-||

Verse 2

  "Trouble started..."
G:|-----------------|-----------------|-----4-4po3------|
D:|-----4-44po3-----|-----4-44po3-----|------------4----|
A:|-------------4---|-------------23-4|---4----------4--|
E:|-4--4---------2-4|---4-------------|----------------2|

		    "Wasting energy..."
G:|-----------------|-----------------|-----------------|
D:|-------4--3------|-----4-4po3------|-----4-4po3------|
A:|-----------------|------------4----|------------4-2-4|
E:|-2-2--2--2--23-4-|--------------2-4|---4-------------|

				      "There is..."
G:|-----4-4po3------|-----------------|-----------------|
D:|------------4----|-------4--3------|-----4-4po3------|
A:|---4----------4--|-----------------|------------4----|
E:|----------------2|-2-2--2--2--23-4-|--------------2-4|


G:|-----------------|-----4-4po3------|-----------------|
D:|-----4-4po3------|------------4----|-------4--3------|
A:|------------23-4-|---4----------4--|-----------------|
E:|---4-------------|----------------2|-2-2--2--2--23-4-|

  "Time to..."
G:|-----------------|-----------------|-----4-4po3------|
D:|-----4-4po3------|-----4-4po3------|------------4----|
A:|------------4----|------------23-4-|--------------4--|
E:|--------------2-4|---4-------------|----------------2|

G:|-----------------||
D:|-------4--3------||
A:|-----------------||
E:|-2-2--2--2--23-4-||

Chorus 2

G:|-----3-4-5-------|-----3-4-5-------|-----5-6-7-------|
D:|-----------6-----|-----------------|-----------------|
A:|-----------------|-----------------|-----------------|
E:|-------------2-4-|-----------4-5-6-|-----------4-5-6-|

G:|-----5-6-7-------|-----------------|-----------------|
D:|-----------------|-----------------|-----------------|
A:|-----------------|-4---4---4-4-5-6-|-6---------------|
E:|------------6----|-------4---------|----3---4-4/6-4--|

G:|-----------------|-4---------------|
D:|-------------4-6-|-----6--6-4------|
A:|-----2-4-4/6-----|------------6----|
E:|---4-------------|---------------4-|

G:|-----3-4-5-------|-----3-4-5-------|-----5-6-7-------|
D:|-----------6-----|-----------------|-----------------|
A:|-----------------|-----------------|-----------------|
E:|-------------2-4-|-----------4-5-6-|-----------4-5-6-|

G:|-----5-6-7-------|-----------------|-----------------|
D:|-----------------|-----------------|-----------------|
A:|-----------------|-4---4---4-4-5-6-|-6---------------|
E:|------------6----|-------4---------|----3---4-4/6-4--|

G:|----------------4|/5---------------|
D:|------------4-6--|---66--6-4-------|
A:|-----45-5/6------|-----------6-----|
E:|---4-------------|-------------7-4-|

G:|-----3-4-5-------|-----3-4-5-------|-----5-6-7-------|
D:|-----------6-----|-----------------|-----------------|
A:|-----------------|-----------------|-----------------|
E:|-------------2-4-|-----------4-5-6-|-----------4-5-6-|

G:|-----5-6-7-------|-----------------|-----------------|
D:|-----------------|-----------------|-----------------|
A:|-----------------|-4---4---4-4-5-6-|-6---------------|
E:|------------6----|-------4---------|----3---4-4/6-4--|

G:|-----------------|-----------------|
D:|-----------------|-4-4-6-6-4-------|
A:|------------6-6--|-----------6-----|
E:|---4-2--2-4------|-------------7-4-|

G:|-----3-4-5-------|-----3-4-5-------|-----5-6-7-------|
D:|-----------6-----|-----------------|-----------------|
A:|-----------------|-----------------|-----------------|
E:|-------------2-4-|-----------4-5-6-|-----------4-5-6-|

G:|-----5-6-7-------|-----------------|-----------------|
D:|-----------------|-----------------|-----------------|
A:|-----------------|-4---4---4-4-5-6-|-6---------------|
E:|------------6----|-------4---------|----3---4-4/6-4--|

G:|-----------------|4/5--------------|
D:|-------------4-6-|---66--6-4-------|
A:|-----2-4-4/6-----|-----------6-----|
E:|---4-------------|-------------7-4-|

G:|-----3-4-5-------|-----3-4-5-------|-----5-6-7-------|
D:|-----------6-----|-----------------|-----------------|
A:|-----------------|-----------------|-----------------|
E:|-------------2-4-|-----------4-5-6-|-----------4-5-6-|

G:|-----5-6-7-------|-----------------|-----------------|
D:|-----------------|-----------------|-----------------|
A:|-----------------|-4---4---4-4-5-6-|-6---------------|
E:|------------6----|-------4---------|----3---4-4/6-4--|

G:|-----------------|4----------------|
D:|-------------4-6-|---66--6-4-------|
A:|-----2-x-4/6-----|-----------6-----|
E:|---4-------------|-------------7---|

These last 8 bars fade out.

G:|-----3-4-5-------|-----3-4-5-------|-----5-6-7-------|
D:|-----------6-----|-----------------|-----------------|
A:|-----------------|-----------------|-----------------|
E:|-4-----------2-4-|-----------4-5-6-|-----------4-5-6-|

   fading...         fading...         fading...
G:|-----5-6-7-------|-----------------|-----------------|
D:|-----------------|-----------------|-----------------|
A:|-----------------|-4---4---4-4-5-6-|-6---------------|
E:|------------6----|-------4---------|----3---4-4/6-4--|

   gone...           ...
G:|-----------------|-----------------||
D:|-----------------|-----------------||
A:|-----------------|-----------------||
E:|-----------------|-----------------||