It Dies Today - A Threnody For Modern Romance

Welcome to the final page of bass tab for It Dies Today - A Threnody For Modern Romance. Here you can do in two ways. First of all you can see A Threnody For Modern Romance bass tab right on the page. Another way is to download It Dies Today A Threnody For Modern Romance bass tab to your computer and to learn it later. Also, on this page you can see some information about this tab such as band name for A Threnody For Modern Romance, its tab type, size of file and file format. If you want to find another bass tab for It Dies Today, or another types of tabs please, look to the previous page using navigation link. This information will help you to learn your favorite music! Good luck!

File info:

Band name It Dies Today
Song name A Threnody For Modern Romance
Tab type Bass tab
Added 05/20/2008
Size 4.06 kb
File format
Views/Loads 0/0
Rating
Please, enter the code for download:

Wrong code.
Tuning: Drop C (CGCF)

Intro 
F|--------------------------------------------------------|
C|-------------------3-2--------------------------3-2---5-|
G|-----------------3-----5-3--------------------3-----5---|
C|-000-000-000-000-----------0--000-000-000-000-----------|
   
F|--------------------------------------------|
C|-------------------3-2----------------------|
G|-----------------3-----5-3----------1-1-3-3-|
C|-000-000-000-000------------5-5-3-3---------|
   

Verse

F|-----------------------------------------------------------|
C|-----------------------------------------------------------|
G|---------7------10---8---7--8-7-------------------3--3-3---|
C|--0-0--0---10-7----0---0---------5--5-5--5-5--3-3----------|

F|-------------------------------------------------------------------|
C|--------------------------------------------------------------- ---|
G|---------7------10---8---7--8-7--8-8-8-8-8-8-8-8-1212121210101010--|
C|--0-0--0---10-7----0---0-------------------------------------------| x2


Chorus

F|-------------------------------------------------------------------------|
C|------7-8-7---------------------------7-8-7------------------------------|
G|----5-------8-----------------------5-------8---------------------------3-
C|--0------------3--3--5--5--8--8---0------------3--3--2-2-2-2-2-2-2--1----|

F|-----------------------------------------------------------------|
C|-----7-----------------------------------------------------------|
G|-------10-8------------------------------------------------------|
C|--0---------3--3--5--5--8--8---1-1-1-1-1-1-1-1-1-1-1-1-1-1-1-1---|




Breakdown !

F|-------------------------------------------------|
C|-------------------------------------------------|
G|-------------------------------------------------|
C|-000-000-000-000-000-000-000-000-0-0-0-0-0-0-0-0-|
   
F|----------------------------------------------------------------|
C|--------------------------------------------2-----------3-------|
G|------------------------------------------5-----3-5---5-----0-3-|
C|-00-0000-00-0000-00--00-0000-00-0000-00-0-----0-----0-----0-----| x2

Verse

Pre Chorus

F|-----------9--------------------------|
C|------7-10---10-9-7-------------------|
G|--0-7---------------3-3-3-3-5-5-5-5---|
C|--------------------------------------|


Chorus

Breakdown 2
F|------------------------------------------------------------------|
C|------------------------------------------------------------------|
G|------------------------------------------------7------10---8-----|
C|--0~--0-0-0-0-0--0~--0-0-0-0-0--0~--0-0-0-0-0-0---10-8----0---0---|


|-----------------------------------------------------------------|
|-----------------------------------------------------------------|
|-------------------------------------------------1-1--3--3-3-----|
|--0~--0-0-0-0-0--0~--0-0-0-0-0--0~--0-0-0-0-0-0------------------|

during  solo.
F|-----------------------------------------------------------|
C|-----------------------------------------------------------|
G|--5-5--3--1--1-1--1-1-1--3--3-3--3-3-3--7------10---8------|
C|------------------------------------------10-7----0---0----|


F|-----------------------------------------------------------|
C|-----------------------------------------------------------|
G|--5-5--3--1--1-1--1-1-13----------------------------------|
C|-------------------------3--3-3--3-3-3--0-0-0-0-0-0-0-0----|x2
   
Pause for 4 beats 

Then chorus
F|-------------------------------------------------------------------------|
C|-----7-8-7---------------------------7-8-7-------------------------------|
G|----5-------8-----------------------5-------8---------------------------3-
C|\--0------------3--3--5--5--8--8---0------------3--3--2-2-2-2-2-2-2--1---|
\ only on first time 

F|-----------------------------------------------------------------|
C|-----7-----------------------------------------------------------|
G|-------10-8------------------------------------------------------|
C|--0---------3--3--5--5--8--8---1-1-1-1-1-1-1-1-1-1-1-1-1-1-1-1---| x2