The Shadows - Nivram

Welcome to the final page of bass tab for The Shadows - Nivram. Here you can do in two ways. First of all you can see Nivram bass tab right on the page. Another way is to download The Shadows Nivram bass tab to your computer and to learn it later. Also, on this page you can see some information about this tab such as band name for Nivram, its tab type, size of file and file format. If you want to find another bass tab for The Shadows, or another types of tabs please, look to the previous page using navigation link. This information will help you to learn your favorite music! Good luck!

File info:

Band name The Shadows
Song name Nivram
Tab type Bass tab
Added 06/26/2008
Size 17.98 kb
File format
Views/Loads 2040/50
Rating
Please, enter the code for download:

Wrong code.
Date: Thu, 26 Dec 2002 18:41:56 +0100 (CET)
From: Jan Björklund 
Subject: s/shadows/nivram.btab

shadows/nivram.btab

TablEdited by Jan Bjorklund
Tuning : E A D G 	Time Signature: 4/4


 |       |       |       |        |       |       |       |        
|--------------------------------|--------------------------------|
|----------------2---0-----------|--------3-------1---------------|
|--------2---------------2-------|3-----------------------3-------|
|3-------------------------------|--------------------------------|

 |       |       |       |        |       |       |       |        
|0-------------------------------|--------------------------------|
|----0---------------------------|--------1-------0---------------|
|--------2---------------2-------|3-----------------------3-------|
|----------------3---------------|--------------------------------|

 |       |       |       |        |       |       |       |        
|0-------0-----------------------|2-------2-----------------------|
|----------------2-------2-------|----------------0-------0-------|
|--------------------------------|--------------------------------|
|--------------------------------|--------------------------------|

 |       |       |       |        |       |       |       |        
|0-------------------------------|--------------------------------|
|--------------------------------|0-------------------------------|
|--------2-------3-------4-------|--------3-------2-------0-------|
|--------------------------------|--------------------------------|

 |       |       |       |        |       |       |       |        
|--------------------------------|--------------------------------|
|----------------2---0-----------|--------1-------0---------------|
|--------2---------------2-------|3-----------------------3-------|
|3-------------------------------|--------------------------------|

 |       |       |       |        |       |       |       |        
|--------4-------2---------------|5-------8-------7-------5-------|
|5-----------------------5-------|--------------------------------|
|--------------------------------|--------------------------------|
|--------------------------------|--------------------------------|

 |       |       |       |        |       |       |       |        
|------------------------4-------|2-------------------------------|
|5-------5-------2---------------|--------2-------0---------------|
|--------------------------------|------------------------0-------|
|--------------------------------|--------------------------------|

 |       |       |       |        |       |       |       |        
|0-------------------------------|--------------------------------|
|--------3-------2-------1-------|0-------------------------------|
|--------------------------------|--------3-------2-------0-------|
|--------------------------------|--------------------------------|

 |       |       |       |        |       |       |       |        
|----------------4---4-----------|--------------------------------|
|--------4---------------4-------|--------4-------1---------------|
|2-------------------------------|2-----------------------2-------|
|--------------------------------|--------------------------------|

 |       |       |       |        |       |       |       |        
|3-----------------------3-------|--------------------------------|
|--3-0-----------3---------------|3---------------0-------3-------|
|--------1-----------------------|--------1-----------------------|
|--------------------------------|--------------------------------|

 |       |       |       |        |       |       |       |        
|2-------------------------------|2-------------------------------|
|--2---------------------2-------|--2---------------------2-------|
|----4---0-------4---------------|----4---0-------4---------------|
|--------------------------------|--------------------------------|

 |       |       |       |        |       |       |       |        
|--------------------------------|--------------------------------|
|--------0---------------0-------|--------0---------------0-------|
|--------------------------------|--------------------------------|
|--------------------------------|--------------------------------|

 |       |       |       |        |       |       |       |        
|0---0---------------------------|--------------------------------|
|--------0-----------------------|----------------1---------------|
|----------------2---------------|3-------3---------------3-------|
|------------------------3-------|--------------------------------|

 |       |       |       |        |       |       |       |        
|0-------------------------------|--------------------------------|
|--------0-----------------------|--------3-------1---------------|
|----------------2---------------|3-----------------------3-------|
|------------------------3-------|--------------------------------|

 |       |       |       |        |       |       |       |        
|0-------0-----------------------|2-------2-----------------------|
|----------------2-------2-------|----------------0-------0-------|
|--------------------------------|--------------------------------|
|--------------------------------|--------------------------------|

 |       |       |       |        |       |       |       |        
|0-------------------------------|--------------------------------|
|--------------------------------|--------------------------------|
|--------------------------------|--------------------------------|
|--------------------------------|--------------------------------|

 |       |       |       |        |       |       |       |        
|0-------------------------------|--------------------------------|
|--------3-------2-------1-------|1---------------1---------------|
|--------------------------------|--------3---------------3-------|
|--------------------------------|--------------------------------|

 |       |       |       |        |       |       |       |        
|----------------4-------2-------|--------------------------------|
|5-------5-----------------------|----------------1-------1-------|
|--------------------------------|3-------3-----------------------|
|--------------------------------|--------------------------------|

 |       |       |       |        |       |       |       |        
|0-------0-----------------------|2-------2-----------------------|
|----------------2-------2-------|----------------0-------0-------|
|--------------------------------|--------------------------------|
|--------------------------------|--------------------------------|

 |       |       |       |        |       |       |       |        
|0-------------------------------|--------------------------------|
|--------3-------2-------1-------|0-------------------------------|
|--------------------------------|--------3-------2-------0-------|
|--------------------------------|--------------------------------|

 |       |       |       |        |       |       |       |        
|--------------------------------|--------------------------------|
|----------------3---0-----------|--------1-------0---------------|
|--------2---------------2-------|3-----------------------3-------|
|3-------------------------------|--------------------------------|

 |       |       |       |        |       |       |       |        
|0-------------------------------|--------------------------------|
|----0---------------------------|--------1-------0---------------|
|--------2---------------2-------|3-----------------------3-------|
|----------------3---------------|--------------------------------|

 |       |       |       |        |       |       |       |        
|0-------0-----------------------|2-------2-----------------------|
|----------------2-------2-------|----------------0-------0-------|
|--------------------------------|--------------------------------|
|--------------------------------|--------------------------------|

 |       |       |       |        |       |       |       |        
|--------------------------------|------------------------1-------|
|--------------------------------|--------1-------0---------------|
|--------2---------------1-------|1-------------------------------|
|3---------------1---------------|--------------------------------|

 |       |       |       |        |       |       |       |        
|----------------4---4-----------|--------------------------------|
|--------4---------------4-------|--------1-------4---------------|
|2-------------------------------|2-----------------------2-------|
|--------------------------------|--------------------------------|

 |       |       |       |        |       |       |       |        
|3-------------------------------|3---0---------------------------|
|--------3---------------3-------|--------3-----------------------|
|----------------1---------------|----------------1-------1-------|
|--------------------------------|--------------------------------|

 |       |       |       |        |       |       |       |        
|2-------------------------------|----------------2---------------|
|--------2-----------------------|2-------4---------------4-------|
|----------------0-------4-------|--------------------------------|
|--------------------------------|--------------------------------|

 |       |       |       |        |       |       |       |        
|--------------------------------|--------------------------------|
|--------0---------------0-------|--------0---------------0-------|
|--------------------------------|--------------------------------|
|--------------------------------|--------------------------------|

 |       |       |       |        |       |       |       |        
|0-------------------------------|--------------------------------|
|--------0-----------------------|--------1-------0---------------|
|----------------2---------------|3-----------------------3-------|
|------------------------3-------|--------------------------------|

 |       |       |       |        |       |       |       |        
|0---0---------------------------|--------------------------------|
|--0-----------------------------|--------1-------0---------------|
|--------2---------------2-------|3-----------------------3-------|
|----------------3---------------|--------------------------------|

 |       |       |       |        |       |       |       |        
|0-------0-----------------------|2-------2-----------------------|
|----------------2-------2-------|----------------0-------0-------|
|--------------------------------|--------------------------------|
|--------------------------------|--------------------------------|

 |       |       |       |        |       |       |       |        
|0-------------------------------|--------------------------------|
|--------3-------2-------1-------|0-------------------------------|
|--------------------------------|--------3-------2-------0-------|
|--------------------------------|--------------------------------|

 |       |       |       |        |       |       |       |        
|--------------------------------|--------------------------------|
|--------2---0---2---0---2-------|1-------1-------1---0-----------|
|--------------------------------|--------------------------------|
|3-------------------------------|--------------------------------|

 |       |       |       |        |       |       |       |        
|--------------------------------|--------------------------------|
|--------2---0---2---0---2-------|1-------1-------1---------------|
|--------------------------------|--------------------3-----------|
|3-------------------------------|--------------------------------|

 |       |       |       |        |       |       |       |        
|----------------------------2---|----0---------------------------|
|------------0---2---0-----------|--------2-----------0---2---4---|
|--------2---------------2-------|------------0-------------------|
|3-------------------------------|--------------------------------|

 |       |       |       |        |       |       |       |        
|0-------------------------------|--------------------------------|
|----0---------------3-------0---|------------0---2---0-----------|
|--------2-------2---------------|2-------2---------------2---0---|
|------------3-------------------|----3---------------------------|

 |       |       |       |        |       |       |       |        
|--------------------------------|--------------------------------|
|----2---0---2---0-------2-------|1-------1-------1---0-----------|
|--------------------------------|----3---------------------------|
|3-------------------------------|--------------------------------|

 |       |       |       |        |       |       |       |        
|--------------------------------|--------------------------------|
|--------2---0---2---0-----------|----1---0-------1---3---1-------|
|------------------------2-------|3-----------3---------------3---|
|3---------------------------3---|--------------------------------|

 |       |       |       |        |       |       |       |        
|----0---------------------------|2---0---------------------------|
|------------0-------------------|--------2-----------2---4---2---|
|3---------------2-------2---0---|------------0---4---------------|
|--------------------3-----------|--------------------------------|

 |       |       |       |        |       |       |       |        
|0-------------------------------|--------------------------------|
|----0-----------------0-2---3---|----0-------0---2---0---2---0---|
|--------2-------2---------------|--------2-----------------------|
|------------3-------------------|--------------------------------|

 |       |       |       |        |       |       |       |        
|----------------4---------------|--------------------4-----------|
|--------4-----------5-----------|4---------------4-----------4---|
|2-------------------------------|----2---------------------------|
|--------------------------------|--------------------------------|

 |       |       |       |        |       |       |       |        
|3-----------0---3---0-----------|------------3-------0-----------|
|--------3---------------3-------|----0---3---------------3-------|
|----------------------------1---|--------------------------------|
|--------------------------------|--------------------------------|

 |       |       |       |        |       |       |       |        
|--------------------------------|------------------------7---6---|
|------------2---4---4-----------|----------------5---------------|
|0-------4-------------------4---|7-------4---7-------------------|
|--------------------------------|----5---------------------------|

 |       |       |       |        |       |       |       |        
|7---------------7---------------|--------7-------7---------------|
|--------7---------------7---5---|4---7-------------------7-------|
|--------------------------------|--------------------------------|
|--------------------------------|--------------------------------|

 |       |       |       |        |       |       |       |        
|0-------------------------------|--------------------------------|
|--------0-----------------------|--------1-------0---------------|
|----------------2---------------|3-----------------------3-------|
|------------------------3-------|--------------------------------|

 |       |       |       |        |       |       |       |        
|0---0---------------------------|--------------------------------|
|--------0-----------------------|--------3-------1---------------|
|----------------2---------------|3-----------------------3-------|
|------------------------3-------|--------------------------------|

 |       |       |       |        |       |       |       |        
|0-------0-----------------------|2-------2-----------------------|
|----------------2-------2-------|----------------0-------0-------|
|--------------------------------|--------------------------------|
|--------------------------------|--------------------------------|

 |       |       |       |        |       |       |       |        
|0---0---------------------------|--------------------------------|
|--------3-------2-------1-------|0-------------------------------|
|--------------------------------|--------3-------2-------0-------|
|--------------------------------|--------------------------------|

 |       |       |       |        |       |       |       |        
|--------------------------------|--------------------------------|
|--------2---0-------------------|--------1-------0---------------|
|----------------2---------------|3-----------------------3-------|
|3-----------------------3-------|--------------------------------|

 |       |       |       |        |       |       |       |        
|0-------------------------------|--------------------------------|
|--------0-----------------------|--------3-------1---------------|
|----------------2---------------|3-----------------------3-------|
|------------------------3-------|--------------------------------|

 |       |       |       |        |       |       |       |        
|0-------0-----------------------|2-------2-----------------------|
|----------------2-------2-------|----------------0-------0-------|
|--------------------------------|--------------------------------|
|--------------------------------|--------------------------------|

 |       |       |       |        |       |       |       |        
|0-------------------------------|--------------------------------|
|--------------------------------|--------------------------------|
|--------------------------------|--------------------------------|
|--------------------------------|------------------------3-------|



Created with TablEdit tabledit/