Da Weasel - Agora E Para Sempre

Welcome to the final page of bass tab for Da Weasel - Agora E Para Sempre. Here you can do in two ways. First of all you can see Agora E Para Sempre bass tab right on the page. Another way is to download Da Weasel Agora E Para Sempre bass tab to your computer and to learn it later. Also, on this page you can see some information about this tab such as band name for Agora E Para Sempre, its tab type, size of file and file format. If you want to find another bass tab for Da Weasel, or another types of tabs please, look to the previous page using navigation link. This information will help you to learn your favorite music! Good luck!

File info:

Band name Da Weasel
Song name Agora E Para Sempre
Tab type Bass tab
Added 05/10/2008
Size 0.84 kb
File format
Views/Loads 71/4
Rating
Please, enter the code for download:

Wrong code.
Song: Agora e Para Sempre (A Paix√£o)
Artist: Da Weasel
Tabbed by: Miguel Pinto (miguelbfpinto@hotmail.com)
http://www.basstabarchive.com/


Verse

G|-------999---------999---------666-------------------|
D|----------9-----------9-----------6------------------|
A|--7~~7-----9--7~~7-----9--4~~4-----6--4-3-3-0-2------|
D|------------------------------------------------0-3--|
     

Chorus/Intro

G|-------999------|
D|----------9-----|
A|--7~~7-----9----|
D|----------------|
     

Intro 8x
Verse 3x
Chorus 8x
Verse 3x
Chorus 15x