Anthrax - Be All End All

Welcome to the final page of guitar tab for Anthrax - Be All End All. Here you can do in two ways. First of all you can see Be All End All guitar tab right on the page. Another way is to download Anthrax Be All End All guitar tab to your computer and to learn it later. Also, on this page you can see some information about this tab such as band name for Be All End All, its tab type, size of file and file format. If you want to find another guitar tab for Anthrax, or another types of tabs please, look to the previous page using navigation link. This information will help you to learn your favorite music! Good luck!

File info:

Band name Anthrax
Song name Be All End All
Tab type Guitar tab
Added 05/01/2008
Size 14.95 kb
File format
Views/Loads 1/4
Rating
Please, enter the code for download:

Wrong code.
ANTHRAX - Be All End All
                                        


Intro play twice
|-----------------|-----------------|-----------------|-------
|
|-----------------|-----------------|-----------------|-------
|
|-----------------|-----------------|-----------------|-------
|
|---s-----s-s-s---|-----------------|-----------------|-------
|
|--6\5---6\5\3/5--|--6\5---6\5\3/5--|--6\5---6\5\3/6--|--8\7--
|
|-----------------|-----------------|-----------------|-------
|


Guitar I:        entire figure three times 


 Eb5 D5v     Eb5 D5v C5 D5v| same | same |  F5  E5VIII  
  |   |        |  |  |  |                   |    |


Guitar II:
|--------------------------|------|------|-------------|
|--------------------------|------|------|-------------|
|--------------------------|------|------|-------------|
|--------------------------| same | same |-------------|
|--5--5--5--5--5--5--5--5--|------|------|-------------|
|--5--5--5--5--5--5--5--5--|------|------|-------------|


then:
|--------|
|--------|
|--------|
|--------|
|--8--7--|
|--8--7--|


Very Fast  Twice


  Eb5  D5v  |    Eb5  D5v  C5  D5v  |  Eb5  D5v |  Eb5  D5v  
C5  D5v  |


  Eb5  D5v  |  Eb5  D5v  C5  D5v  |  F5  |  E5VIII


Twice


    yes        no           
|--------------------------|
|--------------------------|
|--------------------------|
|--------------------------|
|--2--3--4--5--2--3--4--5--|
|--0--0--0--0--0--0--0--0--|



1st Verse


 Bb5   A5               Bb5   A5   E  G5    A5  
  |\sl | | |  | | | |    |\sl |  | |   |\sl |  |  |


  not              an -   other     word




 Bb5   A5               Bb5   A5   E   G5   A5    E 
  |\sl  | | | | | | |    |\sl |  | |   |\sl |  |  |
you'll know what to do


F5   E5 E              F5   E5   D5   E5
|\sl |  | | | | | |    |    |    |    |
Right!                 In  your face they


F5   E5 E
|\sl |  | | | | | |    F5   E5   D5   E5
see it                 in their face you..


Bb5  A5                Bb5   A5        G5   A5  
|\sl | | | | | | |      |\sl |  |  |   |\sl |  |  |
take it.      Make      up their minds           ag-


Bb5  A5                Bb5   A5        G5   A5   E
|\sl | | | | | | |      |\sl |  |  |   |\sl |  | |
gression turns the screws 


F5   E5 E              F5   E5   D5   E5
|\sl |  | | | | | |    |    |    |    |
Fight!                Take your piece and


F5   E5 E              F5  E5    D5   E5
|\sl |  | | | | | |    |    |    |    |
hold it               Make your piece and


G5  E       F5 C5   B5   E5  E
 |  |  | |  |  |\sl |     |  | | | | | | |
stand                     up


G5  E       F5 C5   B5   E5  E
|   |  | |  |  |\sl |     |  | | | | | | |
time to live your dreams


END FIRST VERSE


F5    E5        F5  E5  D5  E5
Down  by       law and they can't hold


F5  E5  E E E E   F5   E5   D5   E5
   you            dictate and control


F5  E5          F5   E5   D5   E5
   you         hold  on  to your I- 


C5viii       B5viii
              de  -  as 


F5   E5         F5   E5   D5   E5
Down by        law and no one owns


F5  E5  E E E E   F5   E5   D5   E5
    you      and  all the shit they've


F5     E5       F5    E5   D5   E5
Thrown you     pay back is a real


C5viii      B5viii
        bitch


F5  F5 F5  F5 G5 G5  G5  G5    Bb5 \ A5 A5 A5 Bb5 \ A5 A5 A5
nothings ever easy when you    do it yourself 


F5 F5 F5 F5 G5 G5 G5 G5    Bb5 A5   Bb5 A5
all you can do is try.


F5 F5 F5 F5 G5 G5 G5 G5    Bb5 \ A5 A5 A5  Bb5 \ A5 A5 A5
life's not unfair           life's  just   life


F5 F5 F5 F5 G5 G5 G5 G5    Bb5  A5    Bb5  A5
Death       Not             su      -  I   -   


Chorus
Eb5    D5v          Eb5   D5   C5   D5v
cide ------         And you'll be the end
 Be    All


Eb5    D5v          Eb5   D5v    C5  D5v
       all          Life can be a real   


Eb5    D5v          Eb5   D5v    C5  D5v
      ball          state of  mind.   Eu - 


F5                  E5viii
pho      -      ri    a


Eb5   D5v           Eb5   D5v   C5   D5v
Be    all           and you'll be The end


Eb5   D5v           Eb5   D5v   C5   D5v
      all           life can be a real


Eb5   D5v           Eb5   D5v   C5   D5v
     ball           state of mind.   Eu


F5                  E5viii
pho     -       ri    a  



2nd Verse is same chords as the first
then repeat second chorus
then:


|--------------------------|
|--------------------------|
|--------------------------|  repeat four times then
|--------------------------|  slower, eight more times
|--2--3--4--5--2--3--4--4--|
|--0--0--0--0--0--0--0--0--|








 play four times:


|--------------------------|-------------------------|
|--------------------------|-------------------------|
|-------------------5---4--|-------------10---9------|
|--5------------3---5---4--|--2----------------------|
|--5------------3---3---2--|--2-----------8---7------|
|--3--0--0--0---1----------|--0--0--0--0----------0--|


play this riff a total of four times 
|---------------------------------|-------------------------|
|---------------------------------|-------------------------|
|---------------------------5--4--|------------------10--9--|
|--5-5-5-5-5-5-5-5-3-3-3-3--5--4--|-------------------------|
|--5-5-5-5-5-5-5-5-3-3-3-3--3--2--|-------------------8--7--|
|--3-3-3-3-3-3-3-3-1-1-1-1--------|--0-0-0-0-0-0-0-0--------|


words for brigde:


Always, taking,  always, faking
ignorance is so frustrating
always, taking, always, faking
ignorance is no way no way



   no way no way
|----------------|
|----------------|
|-10--9---10--9--|
|----------------|
|--8--7----8--7--|
|----------------|


SOLO!!!!!


  F5 F5 D5v E5viii E E E E  E E F5 E D5v E5viii E E   riff 
for most 
|-------------------------|-------------------------| of solo
|-------------------------|-------------------------|
|-------------------------|-------------------------|
|-------------------------|---6----7--------9-------|
|------------5----7----8--|-------------------------|
|---4--5--7---------------|-------------------------|


|---------------------------|----------------|
|--10--7-----7----9----10---|---9----12--10--|
|---------9-----------------|----------------|
|---------------------------|----------------|
|---------------------------|----------------|
|---------------------------|----------------|


|-------------------------|-----------------------|
|-------------------------|-----------------------|
|-------------------------|-----------------------|
|-------------------------|---6----7--------9-----|
|------------5----7----8--|-----------------------|
|---4--5--7---------------|-----------------------|






|-------------------------|------------|
|---/\/\/\/p--------------|-/\/\/\/\/--|
|--9--------7------p------|---9--------|
|-------------9--9--7-----|------------|
|----------------------9--|------------|
|-------------------------|------------|


|---------------------------|----------------|
|---------------------------|----------------|
|---------------------------|----------------|
|---------------------------|---6----7----9--|
|--------------5----7----8--|----------------|
|---4--5--7-----------------|----------------|


|-------------------------|-------------------------|
|-------------------------|---9---12---10---10--10--|
|--10--7-----7----9---10--|-------------------------|
|---------9---------------|-------------------------|
|-------------------------|-------------------------|
|-------------------------|-------------------------|


|---------------10---12---13--|---15---13-----12-------|
|----9--10--12----------------|--------------------15--|
|-----------------------------|------------------------|
|-----------------------------|------------------------|
|-----------------------------|------------------------|
|-----------------------------|------------------------|


|-------b---------b----r----p-----|----/\/\/\/\/\/\/--|
|-(15)----(17)-15--(17)--15--12---|---15--------------|   
|---------------------------------|-------------------|
|---------------------------------|-------------------|
|---------------------------------|-------------------|
|---------------------------------|-------------------|


|---------------------------------|-----------------------
b--------|
|------p----------------p---------|------h----p---------15---
(17)--|
|---14---13------13--14---13------|---13---14---
13-----------------|
|------------14---------------14--|-------------------
14-----------|
|---------------------------------
|--------------------------------|
|---------------------------------
|--------------------------------|


|--------------------------------------|--------------------|
|-------p-------------------p----------|-----h----p---------|
|----14--13-------13-----14---13-------|---13--14--13-------|
|------------14-------------------14---|---------------12---|
|--------------------------------------|--------------------|
|--------------------------------------|--------------------|


|-------------------------------------|-------------------
b-----12---|
|-----p--------------------p----------|------h---p-----15--
(17)------|
|---14--13------13-------14--13-------|---13--14--
13-----------------|
|-----------14--------------------14--|--------------
14--------------|
|-------------------------------------
|------------------------------|
|-------------------------------------
|------------------------------|






|------b------12-----b------12-----b---------|
|---15--(17)------15--(17)------15---(17)----|  play twice
|--------------------------------------------|
|--------------------------------------------|
|--------------------------------------------|
|--------------------------------------------|


|-----p---------------p-----------|----h---
p----------------------|
|--13--12-----12----13--12--------|--12--13--12-------15---
(17)---|
|----------13---------------13----|--------------
13---------------|
|---------------------------------
|-------------------------------|
|---------------------------------
|-------------------------------|
|---------------------------------
|-------------------------------|


|----p-------------------------|------p------------|
|--13--12-----12-----13---13---|---13---12---------|
|----------13------------------|------------11-----|
|------------------------------|-------------------|
|------------------------------|-------------------|
|------------------------------|-------------------|


|----p-------------------p----------|----h---p--------------
b-------|
|--13--12------12------13--12-------|--12--13--12--------15---
(17)--|
|----------13-------------------13--|--------------
13---------------|
|-----------------------------------
|-------------------------------|
|-----------------------------------
|-------------------------------|
|-----------------------------------
|-------------------------------|


|---12-------------12------------|-12--------
12-------------------|
|-------15--(17)-------15--(17)--|---15--(17)--15--(17)--15--
(17)-|
|--------------------------------
|--------------------------------|
|--------------------------------
|--------------------------------|
|--------------------------------
|--------------------------------|
|--------------------------------
|--------------------------------|


|--------------15-14-12------------------
|----------------------------|
|--15--(17)\sl----------15-12------------
|----------------------------|
|----------------------------15-14-12\11-
|----------------------------|
|----------------------------------------|-14-
11----------------------|
|----------------------------------------|------14-12-14-
10---/\/\/\--|
|----------------------------------------|------------------
12--------|


|----p---------p-------------p--------p---------|----
p----------------|
|--15-12-----15-12----12---15-12----15-12----12-|--15-12---
p-----/\/\-|
|--------15--------14------------15-------14----|--------14-
12-14-----|
|-----------------------------------------------
|---------------------|
|-----------------------------------------------
|---------------------|
|-----------------------------------------------
|---------------------|


|-----------------------------------|---b-----
p--------------------|
|-------------------------------12--|-15-15-15-12-15-p------
p------|
|-----b------r--------------0---12--|-14-14-------14--12--14--
12---|
|--14--(16)--14-------13------------
|------------------------------|
|------------------14----14---------
|------------------------------|
|-----------------------------------
|------------------------------|






|------------------------------------|-------------------|
|------------------------------------|-------------------|
|---12---p-------h-p-----------------|-------------------|
|------14-12---12-14-12--------------|-------------------|
|------------14---------13-10---p----|-h---/\/\/---------|
|-----------------------------12-10--|--12-------7---5---|


  t p h   t  p  t  p  p t  p  p  t p p  t  p  p  t  p  p
|-12-7-10-12-10-12-10-7-12-10-7-12-10-7-12-10-7-12-10-7-|


   t p h   t p h  t  p h   t p h   t p h   t p h  t  p h  t p
|-13-8-11-13-8-11-13-8-11-13-8-11-13-8-11-13-8-11-13-8-11-14--
|


    h   t p h   t p h     t p h    t p  h   t p  h    h
|-9-12-14-9-12-14-9-12---15-10-13-15-10-13-15-10-13---11-|


   t  p p   t p  p   t  p p   t  p h   t p  h  t  p  h   t  
p  h  t
|-16-14-11-16-14-11-16-14-11-17-12-15-17-12-15-17-12-15-18-13-
16-18-|


 p  h    t  p  h  t  p h   t  p  h  t p  h  t  p  h  t  p  h  
t  p
|-13-16-18-13-16-18-13-16-19-14-17-19-14-17-20-15-18-20-15-18-
21-|


          p     p           p      p     p 
|-16\-/19-16-/19-16-/21-x-/22-19-22-19-22-19--|--22--(24)--
22--(24)--|


end solo
  chord progression makes up riff 5 
  F5   E5vii   F5   E5vii  D5v  E5vii   F5 E5vii  F5 E5vii 
D5v E5vii
|---b---------|-----------------------|---------
|--------------------|
|-7-----------|-7---------------------|-19------|-
19-----------------|
|-9-----9-----|-9-----9-----7-----9---|-21--21--|-21---21---
19---21--|
|-------------|-----------------------|---------
|--------------------|
|-------------|-----------------------|---------
|--------------------|
|-------------|-----------------------|---------
|--------------------|


 F5   E5vii   F5  E5vii  D5v  E5vii   G5         F#5
|-----------|-----------------------|---b----b-|---b--|
|-14--------|-14--------------------|-8----8---|-7----|
|-16---16---|-16---16-----14---16---|-10---10--|-9----|
|-----------|-----------------------|----------|------|
|-----------|-----------------------|----------|------|
|-----------|-----------------------|----------|------|


next 16 bars is a lick like this with the above riff
and Belladonna doing some oh oh's 


Chorus once more
then cello riff as outro