Armed And Hammered - Beans And Toast

Welcome to the final page of guitar tab for Armed And Hammered - Beans And Toast. Here you can do in two ways. First of all you can see Beans And Toast guitar tab right on the page. Another way is to download Armed And Hammered Beans And Toast guitar tab to your computer and to learn it later. Also, on this page you can see some information about this tab such as band name for Beans And Toast, its tab type, size of file and file format. If you want to find another guitar tab for Armed And Hammered, or another types of tabs please, look to the previous page using navigation link. This information will help you to learn your favorite music! Good luck!

File info:

Band name Armed And Hammered
Song name Beans And Toast
Tab type Guitar tab
Added 05/01/2008
Size 3.39 kb
File format
Views/Loads 0/0
Rating
Please, enter the code for download:

Wrong code.
-------------------------------------------------------------------------------
                   BEANS ON TOAST - Armed And Hammered
-------------------------------------------------------------------------------

By:  Lyrics and Music by AAH.

INTRO
       C#     D       C#   D    A       G       (times two)
e|-----4------5-----------------5-------3------------------------------|
B|-----6------7-----------------5-------3------------------------------|
G|-----6------7-----------------6-------4------------------------------|
D|-----6------7-----------------7-------5------------------------------|
A|-----4------5-----------------7-------5------------------------------|
E|------------------------------5-------3------------------------------|

VERSE  -  Repeat the intro riff X 4

Living sucks and I was leaving my apartment
Got beaten up by cops you stole my drugs you just donít care
Everything is futile it doesnít matter anymore
It doesnít make sense I walk away from it

CHORUS
           C      F(add C)     D      G(add D)    F#(add C#)    F(add C)
e|---------8------------------10---------------------------------------|
B|---------8------------------10---------------------------------------|
G|---------9--------10--------11---------12-----------11------------10-|
D|---------10-------10--------12---------12-----------11------------10-|
A|---------10--------8--------12---------10------------9-------------8-|
E|---------8---------8--------10---------10------------9-------------8-|


It sucks it does
It sucks it does
It sucks it does
It sucks it sucks it sucks it sucks it sucks it sucks it does.....

VERSE -  repeat verse riff X 4

My whole life iíve accomplished nothing
For eight hours a day got no money got no pay
Got no money to buy dope I just canít drink I just canít smoke
It doesnít make no sense, Iíll walk away from it

CHORUS -  (repeat chorus riff X 4)

It sucks it does.... etc

VERSE - repeat verse riff X 4

Everyday is a different shade of grey
I donít know where Iím going to I donít know where Iíve been
All my friends are dead the rest are all in jail
I donít know who my parents are they were killed in the subculture war

CHORUS - repeat chorus riff X 4

It sucks it does.....

BRIDGE -  played to a ska beat (down stroke muted, up stroke chorded)
chords are the same as in the chorus bit.

         C   C   C   C    G   G   A   A
e|-------------------------------------------------------------------|
B|-------------------------------------------------------------------|
G|-------------------------------------------------------------------|
D|-------------------------------------------------------------------|
A|-------------------------------------------------------------------|
E|-------------------------------------------------------------------|

Living sucks and I was walking down the street
Had no money to eat with had no money to drink
Went down to the welfare office had to get some dough
Filled the papers out wrong they told me I had to go  

VERSE -  verse riff X 4

Went down to the street to find something to eat
Got beaten up by Rednecks, decided to go home
The cops same in through the windows, doors they stole my stash and
fucked me up
Now all I have to eat is fucking beans on toast

CHORUS - chorus riff X 4

It sucks it does......

------------------------------------------------------------------------