Blank Skeme - Bastard Out Of Me

Welcome to the final page of guitar tab for Blank Skeme - Bastard Out Of Me. Here you can do in two ways. First of all you can see Bastard Out Of Me guitar tab right on the page. Another way is to download Blank Skeme Bastard Out Of Me guitar tab to your computer and to learn it later. Also, on this page you can see some information about this tab such as band name for Bastard Out Of Me, its tab type, size of file and file format. If you want to find another guitar tab for Blank Skeme, or another types of tabs please, look to the previous page using navigation link. This information will help you to learn your favorite music! Good luck!

File info:

Band name Blank Skeme
Song name Bastard Out Of Me
Tab type Guitar tab
Added 05/06/2008
Size 3.43 kb
File format
Views/Loads 0/0
Rating
Please, enter the code for download:

Wrong code.
#-----------------------------PLEASENOTE-------------------------------------#
#Thisfileistheauthor'sownworkandrepresentshisinterpretationofthe#
#song.Youmayonlyusethisfileforprivatestudy,scholarship,orresearch.#
#RemembertoviewthisfileinCourierorsomeothermonospacedfont.#
#-----------------------------------------------------------------------------#

From:"MatthewHubbs"
Subject:b/blank_skeme/bastard_out_of_me.crd
Date:Wed,31Jul200223:03:48-0500

BastardOutOfMe-BlankSkeme
TranscribedbyHubbs
>From2002releaseBrokenBottlesE.P.

Intro(Guitar):(x2)
GCD

(Bass):(x2)
G-----------------------------5-5-5-5-5-5-5-5-7-5--------------
D-------------5-5-3-3-2-2-0-0---------------------7-5----------
A---------3-5-----------------------------------------7-5------
E-3-3-3-5-------------------------------------------------7-5--

Verse1:
GCD
Myman...
GCD
Getme...
GCD
Mymind...
GCD
Cantyou...

Pre-chorus:
CD
WellIve...
CD
Apart...
CD
Soyou...
CD
Ripthe...

Chorus:
CG
Youvejust...
CG
Youvejust...

Intro(Guitar):(x2)
GCD

(Bass):(x2)
G-----------------------------5-5-5-5-5-5-5-5-7-5---------------
D-------------5-5-3-3-2-2-0-0---------------------7-5-----------
A---------3-5-----------------------------------------7-5-------
E-3-3-3-5-------------------------------------------------7-5---

Verse2:
GCD
Icant...
GCD
CantI...
GCD
Myidol...
GCD
Andtheyre...

Pre-chorus:
CD
WellIve...
CD
Apart...
CD
Soyou...
CD
Ripthe...

Chorus:
CG
Youvejust...
CG
Youvejust...

(Solo)(Off-Guitar):(x4)
GCD

(Bass):(x4)
G-----------------------------5-5-5-5-5-5-5-5-7-5---------------
D-------------5-5-3-3-2-2-0-0---------------------7-5-----------
A---------3-5-----------------------------------------7-5-------
E-3-3-3-5-------------------------------------------------7-5---

Verse3:
GCD
Icant...
GCD
CanI...
GCD
Youknow...
GCD
ButI...

Pre-chorus:
CD
WellIve...
CD
Apart...
CD
Soyou...
CD
Ripthe...

Chorus:
CG
Youvejust...
CG
Youvejust...
CG(Bass-GFED)
Youvejust...
CDG
Youvejust...
Visitwww.directtabs.comformoretabs.