Even - Away From You

Welcome to the final page of guitar tab for Even - Away From You. Here you can do in two ways. First of all you can see Away From You guitar tab right on the page. Another way is to download Even Away From You guitar tab to your computer and to learn it later. Also, on this page you can see some information about this tab such as band name for Away From You, its tab type, size of file and file format. If you want to find another guitar tab for Even, or another types of tabs please, look to the previous page using navigation link. This information will help you to learn your favorite music! Good luck!

File info:

Band name Even
Song name Away From You
Tab type Guitar tab
Added 05/13/2008
Size 2.65 kb
File format
Views/Loads 1/0
Rating
Please, enter the code for download:

Wrong code.




"INTRO"    Distortion

E---------------------------------------------

B---------------------------------------------

G---------------------------------------------

D-55555555-0-44-55555555----------------------           X2     

A-22222222-0-44-55555555----------------------

E----------0-22-33333333----------------------



"VERSE"        Easy

E---------------------------------------------

B---------------------------------------------

G---------------------------------------------

D-55555555--55555555--------------------------           X4

A-22222222--55555555--------------------------

E-----------33333333--------------------------



"CHORUS"  Easy

E---------------------------------------------

B---------------------------------------------

G----------------------------77777777---------

D-55555555-55555555-55555555-77777777---------           X2

A-22222222-33333333-55555555-55555555---------

E-------------------33333333------------------





THEN PLAY THIS:



E---------------------------------------------                               

B---------------------------------------------                               

G---------------------------------------------                               

D-55555555-77777777-99999999-77777777---------

A-55555555-77777777-99999999-77777777---------                               

E-33333333-55555555-77777777-55555555---------                               

                                                                             

E---------------------------------------------                               

B---------------------------------------------

G---------------------------------------------                               

D-55555555-77777777-99999999------------------------------------------       

A-55555555-77777777-99999999-10-10-10-10-10-10-10-10------------------

E-33333333-55555555-77777777--8--8--8--8--8--8--8--8------------------



THEN PLAY THIS clean



E---------------------------------------------

B---------------------------------------------

G---------------------------------------------

D-22-22-0-4-55-55-5---------------------------                   X2

A-22-22-0-4-55-55-5---------------------------

E-00-00-0-2-33-33-3---------------------------



E---------------------------------------------

B---------------------------------------------

G---------------------------------------------

D-22222222-0-4-55555555-----------------------                    X2

A-22222222-0-4-55555555-----------------------

E-00000000-0-2-33333333-----------------------



Rate this tab...........




						

News