Freeload - Ace In The Hole

Welcome to the final page of guitar tab for Freeload - Ace In The Hole. Here you can do in two ways. First of all you can see Ace In The Hole guitar tab right on the page. Another way is to download Freeload Ace In The Hole guitar tab to your computer and to learn it later. Also, on this page you can see some information about this tab such as band name for Ace In The Hole, its tab type, size of file and file format. If you want to find another guitar tab for Freeload, or another types of tabs please, look to the previous page using navigation link. This information will help you to learn your favorite music! Good luck!

File info:

Band name Freeload
Song name Ace In The Hole
Tab type Guitar tab
Added 05/14/2008
Size 2.74 kb
File format
Views/Loads 3/0
Rating
Please, enter the code for download:

Wrong code.
-------------------------------------------------------------------------------
                           ACE IN THE HOLE - Freeload
-------------------------------------------------------------------------------

MAIN RIFF
E------------------------------------------------------------------------------------------------
B------------------------------------------------------------------------------------------------
G-------0-------0-------0-------0------0------0------0--------0------0-------0------0------0-----
D----2-------2--------2------2-------2------2------2-------2------2-------2-------2---2-3--------
A--3------3--------3------2-------2------2------0-------0-------0------5-------5-----------------
E------------------------------------------------------------------------------------------------

VERSE
E0-00-0-00-0-00-0-00--------------------------------------------------
B1-11-1-11-1-11-1-11-----------------------1-11-1-11-1-11-1-11--------
G0-00-0-00-0-00-0-00-0-00-0-00-0-00-0-00---2-22-2-22-2-22-2-22--------
D2-22-2-22-2-22-2-22-2-22-2-22-2-22-2-222-22-2-22-2-22-2-22----------
A3-33-3-33-3-33-3-33-2-22-2-22-2-22-2-220-00-0-00-0-00-0-00----------
E---------------------0-00-0-00-0-00-0-00------------------------------

E2-22-2-22-2-22-2-221-11-1-11-1-11-1-11------------------------------
B3-33-3-33-3-33-3-331-11-1-11-1-11-1-11------------------------------
G2-22-2-22-2-22-2-222-22-2-22-2-22-2-22------------------------------
D0-00-0-00-0-00-0-003-33-3-33-3-33-3-33------------------------------
A---------------------1-11-1-11-1-11-1-11------------------------------
E---------------------1-11-1-11-1-11-1-11------------------------------

CHORUS
E-------------------------------------------------3-3-3-3-3-3-3-3------
B1-1-1-1-1-1-1-11-1-1-1-1-1-1-1-----------------3-3-3-3-3-3-3-3------
G2-2-2-2-2-2-2-22-2-2-2-2-2-2-21-1-1-1-1-1-1-10-0-0-0-0-0-0-0------
D2-2-2-2-2-2-2-23-3-3-3-3-3-3-32-2-2-2-2-2-2-20-0-0-0-0-0-0-0------
A0-0-0-0-0-0-0-03-3-3-3-3-3-3-33-3-3-3-3-3-3-32-2-2-2-2-2-2-2------
E---------------------------------3-3-3-3-3-3-3-33-3-3-3-3-3-3-3------

E----------------------------------------------------------------------
B1-1-1-1-1-1-1-11-1-1-1-1-1-1-12-2-2-2-2-2-2-2----------------------
G2-2-2-2-2-2-2-22-2-2-2-2-2-2-23-3-3-3-3-3-3-3----------------------
D2-2-2-2-2-2-2-23-3-3-3-3-3-3-35-5-5-5-5-5-5-5----------------------
A0-0-0-0-0-0-0-03-3-3-3-3-3-3-35-5-5-5-5-5-5-5----------------------
E----------------------------------------------------------------------

This is a great song by an awesome band Freeload1@hotmail.com
www.Punkhardcore.com

tabbed by: Dominic Elliott

-------------------------------------------------------------------------------
						

News