Mest - Beer

Welcome to the final page of guitar tab for Mest - Beer. Here you can do in two ways. First of all you can see Beer guitar tab right on the page. Another way is to download Mest Beer guitar tab to your computer and to learn it later. Also, on this page you can see some information about this tab such as band name for Beer, its tab type, size of file and file format. If you want to find another guitar tab for Mest, or another types of tabs please, look to the previous page using navigation link. This information will help you to learn your favorite music! Good luck!

File info:

Band name Mest
Song name Beer
Tab type Guitar tab
Added 05/30/2008
Size 7.57 kb
File format
Views/Loads 0/0
Rating
Please, enter the code for download:

Wrong code.




------------------------------------------------------------------------------- 

BEER - Mest 

------------------------------------------------------------------------------- 



TABBED BY THE ALX MEST PUNK 



INTRO 

E------------------------------------------------- 

B------------------------------------------------- 

G------------------------------------------------- 

D-7-0-7-7-0-7--9-0-9-9-0-9--11-0-11-11-0-11--12--- 

A-7-0-7-7-0-7--9-0-9-9-0-9--11-0-11-11-0-11--12--- 

E-5-0-5-5-0-5--7-0-7-7-0-7---9-0--9--9-0--9--10--- 



HERE YOU LET THE NOTES RIGS A LITTLE 

E------------------------------------------------- 

B------------------------------------------------- 

G------------------------------------------------- 

D--7------9------11---------12-------------------- 

A--7------9------11---------12-------------------- 

E--5------7-------9---------10-------------------- 



E-------------------------------------------------------- 

B-------------------------------------------------------- 

G-------------------------------------------------------- 

D-7-0-7-7-0-7--9-0-9-9-0-9--11-0-11-11-0-11--12-12-12-12- 

A-7-0-7-7-0-7--9-0-9-9-0-9--11-0-11-11-0-11--12-12-12-12- X2 

E-5-0-5-5-0-5--7-0-7-7-0-7---9-0--9--9-0--9--10-10-10-10- 



IM NOT SURE ABOUT THIS SKA PART, IF YOU FIND SOMETHING BETTER PLEASE TELL ME 

E------------------------------------------------- 

B------------------------------------------------- 

G------------------------------------------------- 

D-19-19-19-19--21-21-21-21--23-23-23-23--24-24-24- X4 

A------------------------------------------------- 

E------------------------------------------------- 



E--------------------------------------------------------- 

B--------------------------------------------------------- 

G---9-7-6-------9-7-6-7-6-------9-7-6------9-7-6-7-6------ 

D-7-------7---7-----------7---7-------7--7------------7-9- 

A--------------------------------------------------------- 

E--------------------------------------------------------- 



VERSE 

E-------------------------------------------------------- 

B-------------------------------------------------------- 

G-------------------------------------------------------- 

D-7-0-7-7-0-7--9-0-9-9-0-9--11-0-11-11-0-11--12-12-12-12- 

A-7-0-7-7-0-7--9-0-9-9-0-9--11-0-11-11-0-11--12-12-12-12- X2 

E-5-0-5-5-0-5--7-0-7-7-0-7---9-0--9--9-0--9--10-10-10-10- 



E-------------------------------------------------------- 

B-------------------------------------------------------- 

G-------------------------------------------------------- 

D-7-7-7-7-7--9-9-9-9-9--11-11-11-11-11--12-12-12-12------ 

A-7-7-7-7-7--9-9-9-9-9--11-11-11-11-11--12-12-12-12------ X2 

E-5-5-5-5-5--7-7-7-7-7---9--9--9--9--9--10-10-10-10------ 



E----------------------------------------------------------------- 

B----------------------------------------------------------------- 

G----------------------------------------------------------------- 

D--7-7-7-7-7--11-11-11-11-11--12-12-12-12-12--14-14-14-14-14------ 

A--7-7-7-7-7--11-11-11-11-11--12-12-12-12-12--14-14-14-14-14------ X6 

E--5-5-5-5-5---9--9--9--9--9--10-10-10-10-10--12-12-12-12-12------ 



E------------------------------------------ 

B------------------------------------------ 

G------------------------------------------ 

D-7-7-7--9-9-9--11-11-11--12-12-12-12------ 

A-7-7-7--9-9-9--11-11-11--12-12-12-12------ X4 

E-5-5-5--7-7-7---9--9--9--10-10-10-10------ 



E-------------------------------------------------------- 

B-------------------------------------------------------- 

G-------------------------------------------------------- 

D-7-7-7-7-7--9-9-9-9-9--11-11-11-11-11--12-12-12-12------ 

A-7-7-7-7-7--9-9-9-9-9--11-11-11-11-11--12-12-12-12------ X2 

E-5-5-5-5-5--7-7-7-7-7---9--9--9--9--9--10-10-10-10------ 



E----------------------------------------------------------------- 

B----------------------------------------------------------------- 

G----------------------------------------------------------------- 

D--7-7-7-7-7--11-11-11-11-11--12-12-12-12-12--14-14-14-14-14------ 

A--7-7-7-7-7--11-11-11-11-11--12-12-12-12-12--14-14-14-14-14------ X4 

E--5-5-5-5-5---9--9--9--9--9--10-10-10-10-10--12-12-12-12-12------ 



E------------------------------------------------- 

B------------------------------------------------- 

G------------------------------------------------- 

D-7-7-7-7-7--11-11-11---9--11-11-11--------------- X4 

A-7-7-7-7-7--11-11-11---9--11-11-11--------------- 

E-5-5-5-5-5---9--9--9---7---9--9--9--------------- 



E------------------------------------------------------------------ 

B------------------------------------------------------------------ 

G------------------------------------------------------------------ 

D------------------------------------------------------------------ 

A----7-0----11-0-----12-0-----14-0-----7-0----11-0------12-0------- 

E--5------9-------10--------12-------5------9--------10--------12-- 



E------------------------------------------------- 

B------------------------------------------------- 

G------------------------------------------------- 

D-77777777--66666666--44444444--22222222---------- 

A------------------------------------------------- 

E------------------------------------------------- 



E-------------------------------------------------------- 

B-------------------------------------------------------- 

G-------------------------------------------------------- 

D-77777777--66666666--1212121212121212--1414141414141414- 

A-------------------------------------------------------- 

E-------------------------------------------------------- 



E----------------------------------------------------------------- 

B----------------------------------------------------------------- 

G----------------------------------------------------------------- 

D--7-7-7-7-7--11-11-11-11-11--12-12-12-12-12--14-14-14-14-14------ 

A--7-7-7-7-7--11-11-11-11-11--12-12-12-12-12--14-14-14-14-14------ X2 

E--5-5-5-5-5---9--9--9--9--9--10-10-10-10-10--12-12-12-12-12------ 



E------------------------------------------------- 

B------------------------------------------------- 

G------------------------------------------------- 

D-7--------11---------12-------14----------------- 

A-7--------11---------12-------14----------------- 

E-5---------9---------10-------12----------------- 



E------------------------------------------------- 

B------------------------------------------------- 

G------------------------------------------------- 

D-7-7-7-7-7--11-11-11---9--11-11-11--------------- X4 

A-7-7-7-7-7--11-11-11---9--11-11-11--------------- 

E-5-5-5-5-5---9--9--9---7---9--9--9--------------- 



E------------------------------------------------- 

B------------------------------------------------- 

G------------------------------------------------- 

D------9--6-6/5----------------------------------- X4 

A----7-------------------------------------------- 

E------------------------------------------------- 



E------------------------------------------------- 

B------------------------------------------------- 

G------------------------------------------------- 

D-77777777--66666666--44444444--22222222---------- 

A------------------------------------------------- 

E------------------------------------------------- 



AND THAT THE SONG 

IM SURE ITS OK 

ANY CORRECTIONS PLEASE TO JACKIECHAN1717@HOTMAIL.COM 



-------------------------------------------------------------------------------