Nic Caciappo - A Nameless Song

Welcome to the final page of guitar tab for Nic Caciappo - A Nameless Song. Here you can do in two ways. First of all you can see A Nameless Song guitar tab right on the page. Another way is to download Nic Caciappo A Nameless Song guitar tab to your computer and to learn it later. Also, on this page you can see some information about this tab such as band name for A Nameless Song, its tab type, size of file and file format. If you want to find another guitar tab for Nic Caciappo, or another types of tabs please, look to the previous page using navigation link. This information will help you to learn your favorite music! Good luck!

File info:

Band name Nic Caciappo
Song name A Nameless Song
Tab type Guitar tab
Added 06/04/2008
Size 4.47 kb
File format
Views/Loads 0/0
Rating
Please, enter the code for download:

Wrong code.
Nic Caciappo
“A Nameless Song”


E-----------0-------------------0-----------------------------------
B-----10----10---10----10-----10---10--------------------------
G--10---10----10----10---10-----10-----------------------------
D-0------------------8----------------------------------------------
A--------------------------------------------------------------------
D-------------------------------------------------------------------- Repeat that 3 times

(The Rhythm in these chords is really intricate so just strum them freely) 
E---0----0----0-----8---8-------8---8---8------13--13-------------
B--10---10--10---10--10-----10--10--10-----10--10-------------
G--10---10--10---10--10-----10--10--10-----10--10-------------
D--0-----0----0-----------------8----8---8---------------------------
A--0-----0----0-----------------8----8---8---------------------------
D--0-----0----0-----------------8----8---8---------------------------

(this is played over the rhythm very quietly, and swelling Clean WAH-WAH) 
E------------0-------------------0-------------------0-------------------
B------10----10---10----11-----11---11----13----13----------------
G---10---10----10----10---10-----10----10---10----10------------
D--0------------------0--------------------0----------------------------
A------------------------------------------------------------------------
D------------------------------------------------------------------------

E---0----0----0-----8---8-------8---8---8---------------------------------------
B--10---10--10---10--10-----10--10--10----10--10--10--------------------
G--10---10--10---10--10-----10--10--10----10--10--10--------------------
D--0-----0----0-----------------8----8---8-----7----7---7----------------------
A--0-----0----0-----------------8----8---8-----7----7---7----------------------
D--0-----0----0-----------------8----8---8-----7----7---7----------------------

E-------------------------------------------------------------------
B------------------------------------------------------------------
G------------------------------------------------------------------
D----0-0-0-7-7-7-8-8-8-10-10-10-1--------------------------
A----0-0-0-7-7-7-8-8-8-10-10-10-1-------------------------
D----0-0-0-7-7-7-8-8-8-10-10-10-1--------------------------


E--------------------------------------------x--x---------------------------
B-------------------------------------------12-12--------------------------
G-----------h-h-------h-----s-----h-h----15-15--------------------------
D--0-x-x-0-1-3-0--5-6--3--5--0-1-3-0---------------------------------
A--0-x-x-0-1-3-0--5-6--3--5--0-1-3-0---------------------------------
D--0-x-x-0-1-3-0--5-6--3--5--0-1-3-0---------------------------------- Repeat that 3 times

(now for the solo, these are doubled nylon guitars also speed up really fast, so play like u have 100 fingers)
E------------------------------------------------------h-----p----13-12-10-----------------------------------------------------------------
B----------------------------------9-10-12-10-9-10-9-10-9--------------13-12-10-9-10-12-10-9-------------------------------------
G--------------------------7-9-10-----------------------------------------------------------------------10-9-7-6-7-9-7-6----------------
D----------------6-7-9-10-------------------------------------------------------------------------------------------------------------------
A----------5-7-8-----------------------------------------------------------------------------------------------------------------------------
E---5-7-8------------------------------------------------------------------------------------------------------------------------------------

E-------------------------------------------------------------------------------
B------------------------------------------------------------------------------
G-------------------------------------------------------------------------------
D---8-7-5-4-5-7-8-7-5-4--------------------------------------------------
A-------------------------------------------------------------------------------
E----------------------------------------------------------------------------------

AND that’s about it. It’s a little sloppy and no rhythm is in here, just fell free to mess around with
And make it ur own song…. But it is mine so please don’t steal rights.

Any questions or comments please email me at www.dominicisnic@hotmail.com please do not send spam though.

Visit www.directTABS.com for more free tablature!