One King Down - Absolve

Welcome to the final page of guitar tab for One King Down - Absolve. Here you can do in two ways. First of all you can see Absolve guitar tab right on the page. Another way is to download One King Down Absolve guitar tab to your computer and to learn it later. Also, on this page you can see some information about this tab such as band name for Absolve, its tab type, size of file and file format. If you want to find another guitar tab for One King Down, or another types of tabs please, look to the previous page using navigation link. This information will help you to learn your favorite music! Good luck!

File info:

Band name One King Down
Song name Absolve
Tab type Guitar tab
Added 06/07/2008
Size 4.19 kb
File format
Views/Loads 0/1
Rating
Please, enter the code for download:

Wrong code.
-------------------------------------------------------------------------------
			     ABSOLVE - One King Down
-------------------------------------------------------------------------------

By: Phil (mcgill_phil@hotmail.com)

Intro
e|-----------------------------------------|
B|-----------------------------------------|
G|-----------------------------------------|
D|--5--8--9---9865--5--5/8---986-----------|
A|--5--6--9---9865--5--5/6---986-----------|
E|--3--6--7---7643--3--3/6---764-----------| 
              ~~~~           ~~~
               PM            PM

e|------------------------------------------------|
B|------------------------------------------------|
G|------------------------------------------------|
D|---------------------------------2--------------|
A|-------4-----5-------4-----5---4-2--------------|
E|-0-3-4---0-3---0-3-4---0-4---4---0--------------| 
   ~~~~~   ~~~   ~~~~~   ~~~   

e|------------------------------------------------|
B|------------------------------------------------|
G|------------------------------------------------|
D|-4/5--5/4--5/6--7/6--8/7--5/7--2----------------|
A|-4/5--3/2--5/6--5/4--8/7--5/7--2----------------|
E|-2/3-------3/4-------6/5--3/5--0----------------|

Classical ( la Metallica)
e|---------------------------------|---------------|----------------|
B|---------------------------------|---------------|----------------|
G|--9-------10------9-------10-----|--9------9-----|--7-------7-----|
D|----9---9----9------9---9----9---|----9--9---9---|----7---7---7---|
A|--7---7--------7--7---7--------7-|---------------|--5---5-------5-|
E|---------------------------------|--8---8-----8--|----------------|

Distorsion
e|-----------|
B|-----------|
G|-----------|
D|--9--5--7--|
A|--7--3--5--|
E|--7--3--5--|

e|---------------------------------------------------------------|
B|---------------------------------------------------------------|
G|----9---10----9---10------9--------9---9-------7---7-----------|
D|--9---9-----9---9------9-9-------9---9---9---7---7---7---7-3-2-|
A|---------------------------------------------------------7-3-2-|
E|---------------------------------------------------------5-1-0-|

Verse
e|----------------------|---|-----------------------|---|
B|----------------------|---|-----------------------|---|
G|----------------------|---|-----------------------|---|
D|-2--222--5/4-4p2------|-3-|--4--444--5/7-5/4------|-4-|
A|-2--222--5/4-4p2------|-3-|--4--444--5/7-5/4------|-4-|
E|-0--000--3/2-2p0-(x3)-|-1-|--2--222--3/5-3/2-(x3)-|-2-|
      ~~~                 ~       ~~~                 ~ 

e|----------------------------------|------------------------------------|
B|----------------------------------|------------------------------------|
G|----------------------------------|------------------------------------|
D|--22-4-22-5-22-4------------------|--22-4-22-7-22-6-----------/2-------|
A|--22-2-22-5-22-4------------2p0---|--22-2-22-5-22-4--5p4p2p4p5---5p4---|
E|--00-2-00-3-00-2--3p2-0p2p3-----3-|--00-2-00-5-00-4--------------------| 
    ~~   ~~   ~~                        ~~   ~~   ~~

Good Part
e|--------------------------------|
B|--------------------------------|
G|--------------------------------|
D|-9-10--9109---7-101010--121212--|
A|-7--8--7-87---5--8-8-8--101010--|
E|-7--8--7-87---5--8-8-8--101010--|

More Rhytmic
e|-----------------|
B|-----------------|
G|-----------------|
D|-9-10--7-10--12--|
A|-7--8--5--8--10--|
E|-7--8--5--8--10--|

e|---------------------------|
B|---------------------------|
G|---------------------------|
D|-7/6--8/7--2---7/6--7/8--3-|
A|-7/6--8/7--2---7/6--7/8--3-|
E|-5/4--6/5--0---5/4--5/6--1-| 

e|-------------------------|
B|-------------------------|
G|-------------------------|
D|-7/6--7/8--8-7-2-7-5-2-5-|
A|-7/6--7/8--8-7-2-7-5-2-3-|
E|-5/4--5/6--6-5-0-5-3-0-3-| 
             ~~~~~~~~~~~~~

e|-------------------|-------------|
B|-------------------|-------------|
G|-------------------|-------------|
D|--22-8-22-7-22--3--|--6/7-7/8-2--|
A|--22-8-22-7-22--3--|--6/7-7/8-2--|
E|--00-6-00-5-00--1--|--4/5-5/6-0--|
    ~~~~~~~~~~~~

===============================================================================