Raeth - Akela Hoon Main

Welcome to the final page of guitar tab for Raeth - Akela Hoon Main. Here you can do in two ways. First of all you can see Akela Hoon Main guitar tab right on the page. Another way is to download Raeth Akela Hoon Main guitar tab to your computer and to learn it later. Also, on this page you can see some information about this tab such as band name for Akela Hoon Main, its tab type, size of file and file format. If you want to find another guitar tab for Raeth, or another types of tabs please, look to the previous page using navigation link. This information will help you to learn your favorite music! Good luck!

File info:

Band name Raeth
Song name Akela Hoon Main
Tab type Guitar tab
Added 06/13/2008
Size 5.02 kb
File format
Views/Loads 0/4
Rating
Please, enter the code for download:

Wrong code.
Song: Akela Hoon Main
Artist: Raeth
Album: Raeth
Transcribed by: Abhishek Ghosh (mercurialmale AT hotmail DOT com)

Tab includes chords and solo. This is a beautiful song. The other tabs of this song are 
off. I think this is mostly correct, though you might get better results by changing 
of the chord fingerings.

Chords used:
      EADGBe
G     320033
Em7   022033
C9    x32033
Dsus4 xx0233
F     133211
C     x35553
D     x57775

Intro
G       |G       |Em7     |Em7     |
C9      |Dsus4   |G       |G       |

Verse 1
G       |Em7     |C9      |Dsus4   | X 3

Door aise duniya thi, jisme hum tum rehtey they
Khwabon ke dagar pe chalke, hum tum se yeh kehte they
Humey pyaar hai ikraar hai, yeh pyaar nahin to kya aur hai?

[Pause for 1 bar]

Chorus
G       |G       |Em7     |Em7     |
C9      |Dsus4   |G       |G       |

Akela hun main, akela hun main, akela
hun main, tum bin, akela hun main

Interlude (with strings)
G       |G       |Em7     |Em7     |
C9      |Dsus4   |G       |G       |

Verse 2
G       |Em7     |C9      |Dsus4   | X 2

maasoomiyat, teri hasee, yaad aati hai mujhko teri saadgi
aankhon mey tu, saanson mey tu, dil mey ho mere, dharhkan mey tum

Bridge
F       |C       |F       |D       | X 2

Sadiyon ka tha who, apna Milan
Tum paas nahin jo, tanha hai man

Solo
(from last bar of bridge)
---------------------------------|
---------------------------------|
--------9---------12----12-14-12-|
--10/12---12/14------14----------|
---------------------------------|
---------------------------------|

 G                           Em7
|---------------------------|------------------------|
|---------------------------|------------------------|
|-14b(16)-(b16)(b16)-r14p12-|14-12-12~~-----------12-|
|---------------------------|------------------------|
|---------------------------|------------------------|
|---------------------------|------------------------|

 C9                          Dsus4
|---------------------------|------------------------|
|-12-15-15-17-15------------|---------------------15-|
|------------------16p14\12-|-14~--------------------|
|---------------------------|------12/14\12~~--------|
|---------------------------|------------------------|
|---------------------------|------------------------|

 G                        Em7
|-17b19----b19-b19r17p15-|17~---------------------|
|------------------------|-----15-15~~------------|
|------------------------|------------------------|
|------------------------|------------------------|
|------------------------|------------------------|
|------------------------|------------------------|

 C
|-10-10/12-10/12-\0-10/12-10/12-12-12\10----------|
|-10-10/12-10/12-\0-10/12-10/12-12-12\10-12p10----|
|----------------------------------------------12-|
|-------------------------------------------------|
|-------------------------------------------------|
|-------------------------------------------------|

 D
|-------------------------------------------------|
|-10~~\-------------------------------------------|
|-----------------------------------------11-12-14|
|---------------------------------10-12-14--------|
|------------------------10-12-14-----------------|
|---------------10-12-14--------------------------|

 F                                          C
|------------------------------------------|------------------|
|-13~-13h15p12h13--------------------------|------------------|
|---------------------12-14-14b16r14p12-14-|12~--------12-----|
|------------------14----------------------|--------14----14--|
|------------------------------------------|------------------|
|------------------------------------------|------------------|

F                                           D
|------------------------------------------|------------------|
|-13~-13h15p12h13--------------------------|-------15-15~~----|
|------------------------12-14-14b16r14p12-|14~---------------|
|---------------------14-------------------|------------------|
|------------------------------------------|------------------|
|------------------------------------------|------------------|

 D                                          G(first bar of verse 3)
|------------------------------------------|------------------|
|----------------------------------------_-|------------------|
|--12-12\11-11\9-9\7-7\5-5h7p4-4h5p2-2h4p0-|--------------|
|--12-12\11-11\9-9\7-7\5-5-----4-----2-----|------------------|
|------------------------------------------|------------------|
|------------------------------------------|------------------|

Verse 3
G       |Em7     |C9      |Dsus4   | X 2

Kyon rooth chaley they humsey, humney aisi kya khataa ki
Sooni kar di meri duniya tumne, saari kasmey jhoot di tum

Chorus/ Outro
G       |G       |Em7     |Em7     |
C9      |Dsus4   |G       |G       | (Repeat chorus once to end)

Akela hun main, akela hun main, akela
hun main, tum bin, akela hun main (Repeat chorus once to end)

Thatís it. Itís quite easy to play. Make sure you *feel* the solo!