Robben Ford - He Dont Play Nothin But The Blues

Welcome to the final page of guitar tab for Robben Ford - He Dont Play Nothin But The Blues. Here you can do in two ways. First of all you can see He Dont Play Nothin But The Blues guitar tab right on the page. Another way is to download Robben Ford He Dont Play Nothin But The Blues guitar tab to your computer and to learn it later. Also, on this page you can see some information about this tab such as band name for He Dont Play Nothin But The Blues, its tab type, size of file and file format. If you want to find another guitar tab for Robben Ford, or another types of tabs please, look to the previous page using navigation link. This information will help you to learn your favorite music! Good luck!

File info:

Band name Robben Ford
Song name He Dont Play Nothin But The Blues
Tab type Guitar tab
Added 06/19/2008
Size 22.32 kb
File format
Views/Loads 0/0
Rating
Please, enter the code for download:

Wrong code.
#

                       HE DON'T PLAY NOTHIN' BUT THE BLUES
                   As recorded by Robben Ford & The Blue Line
                        (From the 1993 Album MYSTIC MILE)

Words and Music by Robben Ford
Transcribed by Slowhand (guitar-steve@gmx.de)

Gtr I (D# G# C# F# A# D#) - 'Gtr. 1'

 Intro
  Q=124
 4/4
  Gtr I
  E E E  E  +E  E E E   +E  E E E Q  Q
|---------------------|-----------------|
|---8---10-(10)-8-----|-----------------|
|-9---9-----------9-9-|-(9)-7-5-7-5-----|
|-7---7-----------7-7-|-(7)-7-5-7-5--7--|
|---------------------|--------------7--|
|---------------------|-----------------|


 3/8      4/4
                                     ~~
  +Q   E   E E E Q  Q  E   +E  E E E Q  E E
|--------|---------------|-------------------|
|--------|---------------|-------1---3----8--|
|--------|-5-7---7--5--0-|-(0)-2---2-2s=9----|
|-(7)----|-5-7---7--5--0-|-(0)---------------|
|-(7)----|-----5-5-------|-------------------|
|--------|-------------3-|-(3)---------------|


   Q  E E Q  E E   E Q  H    E   E E E Q  Q  E   +E  E E E E  E  Q
|----------------|-------------|---------------|--------------------|
|-10--8----------|-------------|---------------|-------1-----10-10--|
|--9----9-9--7-5-|-7-5---------|-5-7---7--5--0-|-(0)-2---2s9--------|
|---------7--7-5-|-7-5--7------|-5-7---7--5--0-|-(0)----------------|
|----------------|------7------|-----5---------|--------------------|
|----------------|-------------|-------------3-|-(3)----------------|


   Q  E E E E Q    E Q  E +H       E E E Q  Q  E   +E  E E E Q  E E
|----------------|---------------|---------------|------------------|
|-10--8----------|---------------|---------------|-------1---3----8-|
|-------9-9-9-7--|-7-5-----------|-5-7---7--5--0-|-(0)-2---2----9---|
|---------7-7-7--|-7-5--7-(7)----|-5-7---7--5--0-|-(0)--------------|
|----------------|------7-(7)----|-----9---------|------------------|
|----------------|---------------|-------------3-|-(3)--------------|


   E E Q  E Q  E       +S  S E E E E Q  E
|--------------------|--------------------|
|-10---8--7-7--7b7.5r|=(7)-----7---5------|
|----9----9-9--7b8r==|=(7)-5---7---5------|
|--------------------|-------7---7---7--0-|
|--------------------|--------------------|
|--------------------|--------------------|


                2/4        4/4
  E Q  Q  Q  E   +Q   E E   E E Q  E Q  E
|--------------|----------|---------------|
|--------------|----------|---------------|
|-5-7--7--5----|----------|-----2--2-2--2-|
|-5-7--7--5--5-|-(5)--7p5-|---2-2--2-2--2-|
|------------5-|-(5)------|-0-------------|
|--------------|----------|---------------|


                                                    Verse 1
  +Q   Q  E E E E   +Q   Q  E Q  E   +E  Q.   H      E E E E E E E E
|-----------------|----------------|----------0----|-----------------|
|---------2-2-----|----------------|-----3----3----|-----------------|
|-(2)--2--3-----2-|-(2)--2--2-2--2-|-(2)-2----2----|---x-2---2-2---2-|
|-(2)--2--------2-|-(2)--2--2-2--2-|-(2)-5----4----|---x-2---2-2---2-|
|-----------------|----------------|---------------|-----------------|
|-----------------|----------------|---------------|-----------------|


  +Q   Q  E Q  E   +Q   Q  E Q  E   +E  E E E H      Q  E E E E E E
|----------------|----------------|----------------|----------------|
|----------------|----------------|-----------3----|----------------|
|-(2)--2--2-2--2-|-(2)--2--2-2--2-|-(2)-------2----|----2-----2---2-|
|-(2)--2--2-2--2-|-(2)--2--2-2--2-|-(2)-------0----|----2-----2---2-|
|----------------|----------------|-----0-3-4------|-0--------------|
|----------------|----------------|----------------|----------------|


  +Q   Q  E E E E   +Q   Q  E Q  E   E E E E E E E E   E E Q  E E E E
|-----------------|----------------|---------0---0---|----------------|
|-----------------|----------------|-----------2-----|----------------|
|-(2)--2--5-2---2-|-(2)--2--2-2--x-|-----0---------0-|-----2----2---2-|
|-(2)--2--5-2---2-|-(2)--2--2-2--x-|---0-------------|---2-2----2---2-|
|-----------------|----------------|-----------------|-0--------------|
|-----------------|----------------|-3-----2---------|----------------|


  +Q   Q  E E E E   +Q   Q  E Q  E   +E  E E E Q  Q    Q  Q  E Q.
|-----------------|----------------|-----------2--2--|--------------|
|---------3-2-----|----------------|-----------3--3--|--------------|
|-(2)--2--2-0-2-2-|-(2)--2--2-2--2-|-(2)-------2--2--|----2----2----|
|-(2)--2--------2-|-(2)--2--2-2--2-|-(2)-------0--0--|----2----2----|
|-----------------|----------------|-----0-3-4-------|-0------------|
|-----------------|----------------|-----------------|--------------|


  E E E E +Q   Q    W          +H     E E E E   Q  E E E E E E
|-------2-(2)--2--|-0--------|-(0)----3---3-3-|----------------|
|-------3-(3)--3--|-0--------|-(0)----3---3-3-|----------------|
|-----0-2-(2)--2--|-2--------|-(2)----4---4-4-|----2-2---5---2-|
|---0---0-(0)-----|-2--------|-(2)----5---5-5-|----2-2---5---2-|
|-----------------|----------|----------------|-0--------------|
|-3---------------|----------|----------------|----------------|


 Guitar Break
                                                                  2/4
  +H     E E E E    Q  E E Q  E E   E Q  E +H       E Q  Q  Q  E   +Q   E E
|----------------|----------------|---------------|--------------|----------|
|------------8---|-10--8---8------|---------------|--------------|----------|
|-(2)------9---9-|--9----9-9--7-5-|-7-5-----------|-5-7--7--5----|------2---|
|-(2)------------|----------------|-7-5--7-(7)----|-5-7--7--5--5-|-(5)--0---|
|----------------|----------------|------7-(7)----|------------5-|-(5)----3-|
|----------------|----------------|---------------|--------------|----------|


                                           Verse 2
 4/4
  Q  Q  E E E E   E E     +S  S E E Q.      E E E E E E E E   +Q   Q  E Q  E
|---------------|-------------------------|-----------------|----------------|
|---------------|---7b7.5r(7)-----5-7b8---|-----------------|----------------|
|----2----2---2-|---7b8r==(7)-5---5-7b8---|---x-2---2-2---2-|-(2)--2--2-2--2-|
|----2----2---2-|---------------5---------|---x-2---2-2---2-|-(2)--2--2-2--2-|
|-0-------------|-------------------------|-----------------|----------------|
|---------------|-------------------------|-----------------|----------------|


  +Q   Q  E Q  E   +E  E E E H      Q  E E E E E E   +Q   Q  E E E E
|----------------|----------------|----------------|-----------------|
|----------------|-----------3----|----------------|-----------------|
|-(2)--2--2-2--2-|-(2)-------2----|----2-----2---2-|-(2)--2--5-2---2-|
|-(2)--2--2-2--2-|-(2)-------0----|----2-----2---2-|-(2)--2--5-2---2-|
|----------------|-----0-3-4------|-0--------------|-----------------|
|----------------|----------------|----------------|-----------------|


  +Q   Q  E Q  E   E E E E E E E E   E E Q  E E E E   +Q   Q  E E E E
|----------------|---------0---0---|----------------|-----------------|
|----------------|-----------2-----|----------------|---------3-2-----|
|-(2)--2--2-2--x-|-----0---------0-|-----2----2---2-|-(2)--2--2-0-2-2-|
|-(2)--2--2-2--x-|---0-------------|---2-2----2---2-|-(2)--2--------2-|
|----------------|-----------------|-0--------------|-----------------|
|----------------|-3-----2---------|----------------|-----------------|


  +Q   Q  E Q  E   +E  E E E Q  Q    Q  Q  E Q.     E E E E +Q   Q
|----------------|-----------2--2--|--------------|-------2-(2)--2--|
|----------------|-----------3--3--|--------------|-------3-(3)--3--|
|-(2)--2--2-2--2-|-(2)-------2--2--|----2----2----|-----0-2-(2)--2--|
|-(2)--2--2-2--2-|-(2)-------0--0--|----2----2----|---0---0-(0)-----|
|----------------|-----0-3-4-------|-0------------|-----------------|
|----------------|-----------------|--------------|-3---------------|


                                              Guitar Solo
  W          +H     E E E E   Q  E E E E E E   +H     Q   S     +S   E
|-0--------|-(0)----3---3-3-|----------------|-----------15b17r(15)-15b17===|
|-0--------|-(0)----3---3-3-|----------------|------------------------------|
|-2--------|-(2)----4---4-4-|----2-2---5---2-|-(2)--------------------------|
|-2--------|-(2)----5---5-5-|----2-2---5---2-|-(2)--------------------------|
|----------|----------------|-0--------------|------------------------------|
|----------|----------------|----------------|------------------------------|


   +Q     S  S  E     E  E      E  E       E  Q      +S   S  E  Q        E
|-(15)r--15p12--------------------------|-15-------------------------------|
|--------------15b16-15-13b13.5---15b17-|----15b16r=(15)-13-15-13b13.5--14-|
|---------------------------------------|----------------------------------|
|---------------------------------------|----------------------------------|
|---------------------------------------|----------------------------------|
|---------------------------------------|----------------------------------|


               ~~
                   |--3--|
  E  Q      E  Q   S  S  S  E    Q   E  E    E  Q      E
|----------10-----------------|--------------------------|
|---13b15-----13--10h13p10----|-10-----12b13---15b17--15-|
|--------------------------11-|-----11-------------------|
|-----------------------------|--------------------------|
|-----------------------------|--------------------------|
|-----------------------------|--------------------------|


   Q   S  S  E  E  E  Q    E  Q      E  E     E     E E
|------------------------|------------------------------|
|-13---------------------|----------13-------------10---|
|-----14p12--------------|---12b14-----12b14-12b14----9-|
|-----------12p10--------|------------------------------|
|-----------------12-12--|------------------------------|
|------------------------|------------------------------|


   ~~~
               |--3--|
   E. S  E  E  E  E  E E E   E E E H     E
|--------------------------|-------------------|
|----------------------7---|-5----------15b17==|
|-12--9----12----------7---|-5-----------------|
|-------14----12p10------7-|---7---5-----------|
|-------------------12-----|-----7-------------|
|--------------------------|-------------------|


   +H      +E    E  E  E    S     +S   E  E  E       S  S  E  E  E
|---------------15-12----|-----------------------------------------|
|-(15)----(15)r-------15-|-15b17r(15)-13-15-13b13.5----------------|
|------------------------|--------------------------14p12----12-13-|
|------------------------|--------------------------------14-------|
|------------------------|-----------------------------------------|
|------------------------|-----------------------------------------|


   Q   Q      E  E  E  E    E     Q      E  H
|-----12-----------------|-12----12--------------|
|-----12b13--------------|-12b13-12b13--10------|
|-14---------14p12-14p12-|-----------------------|
|------------------------|-----------------------|
|------------------------|-----------------------|
|------------------------|-----------------------|


  E  E    E  E    E  E    E  E
|----------------------------------|
|---20b22---20b22---20b22---20b22==|
|----------------------------------|
|----------------------------------|
|----------------------------------|
|----------------------------------|


                   ~~
   +Q     S  S  E  Q   S  S  E   E  E    E  E    E  E    E  E
|------------------------------|----------------------------------|
|-(20)r--20p17-----------------|---20b22---20b22---20b22---20b22==|
|--------------19-17-----------|----------------------------------|
|---------------------19p17----|----------------------------------|
|---------------------------19-|----------------------------------|
|------------------------------|----------------------------------|


            |----3-----|       |----3----|
   +E    E  S     +S   S      +S   +S    S  S  S  E     S  S  E
|-------20------------------------------17----------------------|
|-(20)r----20b22r(20)-20b22==(20)-(20)r----20p17----------------|
|------------------------------------------------19b20-19p17----|
|------------------------------------------------------------17-|
|---------------------------------------------------------------|
|---------------------------------------------------------------|


   +Q    Q   E  E E  E        +E    E  E     E  E  E       S  S  E
|--------------------------|-------15------------------------------|
|-------17--19-17---15b17==|=(15)r----15b16-13-15-13b13.5----------|
|-------17--19-17----------|------------------------------14p12----|
|-(17)---------------------|------------------------------------14-|
|--------------------------|---------------------------------------|
|--------------------------|---------------------------------------|


   E  E  E.  S  S  S  E  E  E   E E E Q  E E E
|-----------------------------|----------------|
|-----------------------------|------------5-7-|
|-14-------12----------------|------------5-7-|
|-------14-----12p10----------|-----7-7--7-----|
|--------------------12p10----|----------------|
|--------------------------10-|-8h9------------|


  ~    ~~
  Q  E Q.   E  E    +E   E  E  E  Q      E     +E
|----------------|----------------------------------|
|-7--5-7---------|------10-10-12-12b13--10b11r(10)--|
|-7--5-7------11-|-(11)-----------------------------|
|----------------|----------------------------------|
|----------------|----------------------------------|
|----------------|----------------------------------|


   ~~
   Q   E E  S S  S  S  E.  S
|----------------------------|
|-10--10---------------------|
|--------9-12p9----12--------|
|---------------14----12--10-|
|----------------------------|
|----------------------------|


  E E E Q.   E   +E    E E H.        +H     Q  E E
|--------------------|-----0-------|-(0)-----------|
|-7p5----------------|-----0-------|-(0)----0------|
|-7p5----------------|-----1-------|-(1)----4--2-0-|
|-----7-7------------|-----2-------|-(2)----4--2-0-|
|--------------------|-----2-------|-(2)-----------|
|------------2b3r(2)-|-0-0-0-------|-(0)-----------|


  Q  H    E E   +H     S S E S S E     E E H.        +H     Q  E E
|----0--------|----------------------|-----0-------|-(0)----3--3-3-|
|----0------3-|-(3)------------------|-----0-------|-(0)----3--3-3-|
|----1------2-|-(2)------------------|-----1-------|-(1)----4--4-4-|
|----2------0-|-(0)--------0---------|-----2-------|-(2)----5--5-5-|
|----2--------|--------0h2---2p0-----|-----2-------|-(2)----5--5-5-|
|-0--0------2-|-(2)--------------2b3-|-0-x-0-------|-(0)----3--3-3-|


  E E Q.   E E E   +Q   E E E S S E E   E Q.     E E E E   +Q   E  Q  E E E
|----------------|--------------------|----------5---5-5-|-(5)--8-12---------|
|----------------|------------8-------|---8b10-----5-----|--------10----8----|
|--------------5-|-(5)--7p5-9---9s7-5-|------------------|------------9---9--|
|---3s5----7p5---|--------------------|------------------|-------------------|
|----------------|--------------------|------------------|-------------------|
|----------------|--------------------|------------------|-------------------|


   Q  E E Q  E E   E Q  E +H       E Q  Q  Q  E   +E  E E E Q  E E
|----------------|---------------|--------------|------------------|
|-10--8---9------|---------------|-1-3--3--1----|-------1---3----8-|
|-------9-7--7-5-|-7-5-----------|-0-2--2--0--0-|-(0)-2---2----9---|
|------------7-x-|-7-5--7-(7)----|------------0-|-(0)--------------|
|----------------|------7-(7)----|--------------|------------------|
|----------------|---------------|------------3-|-(3)--------------|


   E E  E E  Q  E E       +S  S E E E E Q.
|----8------------------|-----------------------|
|-10---10---10--8-7b8r==|=(7)-----7---5-7b7.5---|
|---------9-------7b7.5r|=(7)-5---7---5-7-------|
|-----------------------|-------7---7-----------|
|-----------------------|-----------------------|
|-----------------------|-----------------------|


                2/4        4/4
  E Q  Q  Q  E   +Q   E E   Q  E E E Q  E
|--------------|----------|---------------|
|-1-3--3--1----|----------|---------------|
|-0-2--2--0--0-|-(0)--2---|----2---2-2--2-|
|------------0-|-(0)--0---|----2---2-2--2-|
|--------------|--------3-|-0-------------|
|------------3-|-(3)------|---------------|


               Verse 3
  E Q.   H      E E E E E E E E   +Q   Q  E Q  E   +Q   Q  E Q  E
|--------0----|-----------------|----------------|----------------|
|---3----2----|-----------------|----------------|----------------|
|---2----3----|---x-2---2-2---2-|-(2)--2--2-2--2-|-(2)--2--2-2--2-|
|---4----4----|---x-2---2-2---2-|-(2)--2--2-2--2-|-(2)--2--2-2--2-|
|-------------|-----------------|----------------|----------------|
|-------------|-----------------|----------------|----------------|


  +E  E E E H      Q  E E E E E E   +Q   Q  E E E E   +Q   Q  E Q  E
|----------------|----------------|-----------------|----------------|
|-----------3----|----------------|-----------------|----------------|
|-(2)-------2----|----2-----2---2-|-(2)--2--5-2---2-|-(2)--2--2-2--x-|
|-(2)-------0----|----2-----2---2-|-(2)--2--5-2---2-|-(2)--2--2-2--x-|
|-----0-3-4------|-0--------------|-----------------|----------------|
|----------------|----------------|-----------------|----------------|


  E E E E E E E E   E E Q  E E E E   +Q   Q  E E E E   +Q   Q  E Q  E
|---------0---0---|----------------|-----------------|----------------|
|-----------2-----|----------------|---------3-2-----|----------------|
|-----0---------0-|-----2----2---2-|-(2)--2--2-0-2-2-|-(2)--2--2-2--2-|
|---0-------------|---2-2----2---2-|-(2)--2--------2-|-(2)--2--2-2--2-|
|-----------------|-0--------------|-----------------|----------------|
|-3-----2---------|----------------|-----------------|----------------|


  +E  E E E Q  Q    Q  Q  E Q.     E E E E +Q   Q    W
|-----------2--2--|--------------|-------2-(2)--2--|-0----|
|-----------3--3--|--------------|-------3-(3)--3--|-0----|
|-(2)-------2--2--|----2----2----|-----0-2-(2)--2--|-2----|
|-(2)-------0--0--|----2----2----|---0---0-(0)-----|-2----|
|-----0-3-4-------|-0------------|-----------------|------|
|-----------------|--------------|-3---------------|------|


                                                      Guitar Break
  +H     E E E E   Q  E E E E E E   +H     E E E E      Q  E E E E Q
|-(0)----3---3-3-|----------------|----------------||-----------------|
|-(0)----3---3-3-|----------------|------------8---||o-10--8---8-8-8--|
|-(2)----4---4-4-|----2-2---5---2-|-(2)------9---9-||--------9-9-9-7--|
|-(2)----5---5-5-|----2-2---5---2-|-(2)------------||-----------------|
|----------------|-0--------------|----------------||o----------------|
|----------------|----------------|----------------||-----------------|


                                                          Outro
            ~~~~~~
  E E     E E +H       E Q  Q  Q  E   +E  E E E Q  E E      Q  E E E E Q
|--------------------|--------------|-------------------||----------------|
|-7-5b5.5------------|-1-3--3--1----|-------1---3----8-o||-10--8----------|
|-7-5----------------|-0-2--2--0--0-|-(0)-2---2----9----||-------9-9-9-7--|
|---------7-7-(7)----|------------0-|-(0)---------------||---------x---7--|
|--------------------|--------------|------------------o||----------------|
|--------------------|--------------|-------------------||----------------|


        ~~~~~~
  E E E E +H       E Q  Q  Q  E   +H.      E E        E E S S E     E E E E
|----------------|--------------|------------8b8.5-|-------------------------|
|-7-5------------|-1-3--3--1----|------------------|-10---8p5----------------|
|-7-5------------|-0-2--2--0--0-|-(0)--------------|----9-----7b7.5-7p5------|
|-----7-7-(7)----|------------0-|-(0)--------------|--------------------7----|
|----------------|--------------|------------------|----------------------7--|
|----------------|------------3-|-(3)--------------|-------------------------|


  E E Q  H
|-------------*|
|-------------*|
|-------------*|
|-5-7---------*|
|-------------*|
|-------------*|


Duration Legend
---------------
W - whole; H - half; Q - quarter; E - 8th; S - 16th; T - 32nd; X - 64th; a - acciaccatura
+ - note tied to previous; . - note dotted; .. - note double dotted
Uncapitalized letters represent notes that are staccato (1/2 duration)
Irregular groupings are notated above the duration line
Duration letters will always appear directly above the note/fret number it represents the
duration for.  Duration letters with no fret number below them represent rests.  Multi-
bar rests are notated in the form Wxn, where n is the number of bars to rest for.  Low
melody durations appear below the staff

Tablature Legend
----------------
 h   - hammer-on
 p   - pull-off
 b   - bend
 pb  - pre-bend
 r   - bend release (if no number after the r, then release immediately)
 /  - slide into or out of (from/to "nowhere")
 s   - legato slide
 S   - shift slide
  - natural harmonic
[n]  - artificial harmonic
n(n) - tapped harmonic
 ~   - vibrato
 tr  - trill
 T   - tap
 TP  - trem. picking
 PM  - palm muting
n/  - tremolo bar dip; n = amount to dip
 n  - tremolo bar down
 n/  - tremolo bar up
/n  - tremolo bar inverted dip
 =   - hold bend; also acts as connecting device for hammers/pulls
 <>  - volume swell (louder/softer)
 x   - on rhythm slash represents muted slash
 o   - on rhythm slash represents single note slash

Misc Legend
-----------
 |  - bar
||  - double bar
||o - repeat start
o|| - repeat end
*|  - double bar (ending)
 :  - bar (freetime)
 $  - Segno
 &  - Coda
Tempo markers -  = BPM(8/16=s8/s16), where s8 = swing 8ths, s16 = swing 16ths


***************************************************************************************
* Generated using Power Tab Editor by Brad Larsen - http://powertab.guitarnetwork.org *
***************************************************************************************