Subb - 42 Days

Welcome to the final page of guitar tab for Subb - 42 Days. Here you can do in two ways. First of all you can see 42 Days guitar tab right on the page. Another way is to download Subb 42 Days guitar tab to your computer and to learn it later. Also, on this page you can see some information about this tab such as band name for 42 Days, its tab type, size of file and file format. If you want to find another guitar tab for Subb, or another types of tabs please, look to the previous page using navigation link. This information will help you to learn your favorite music! Good luck!

File info:

Band name Subb
Song name 42 Days
Tab type Guitar tab
Added 07/03/2008
Size 1.35 kb
File format
Views/Loads 0/0
Rating
Please, enter the code for download:

Wrong code.
-------------------------------------------------------------------------------
                                  42 DAYS - Subb
-------------------------------------------------------------------------------

By:Ju-Lee       julee100@hotmail.com

intro/verse
e|--------------|------------------------------------------------------------|
B|--------------|------------------------------------------------------------|
G|--^-----^-----|-----------------5555---------------------------------------|
D|--7-----3-----|---8888---3333---5555---5555-x3-----777--888----------------|
A|--------------|---8888---3333---3333---5555--------777--888----------------|
E|--------------|---6666---1111----------3333--------555--666----------------|

chorus
e|---------------------------------------------------------------------------|
B|---------------------------------------------------------------------------|
G|--7777-----------------7777------------5-----5-----------------------------|
D|--7777-7777-8888-5555--7777-7777-8888--5--5--5---x2------------------------|
A|--5555-7777-8888-5555--5555-7777-8888--3--5--3-----------------------------|
E|-------5555-6666-3333-------5555-6666-----3--------------------------------|

that's all around that !
for other punk-ska tabs e-mail me ! :)

===============================================================================