Hardcore Superstar - Bastards

Welcome to the final page of guitar tab for Hardcore Superstar - Bastards. Here you can do in two ways. First of all you can see Bastards guitar tab right on the page. Another way is to download Hardcore Superstar Bastards guitar tab to your computer and to learn it later. Also, on this page you can see some information about this tab such as band name for Bastards, its tab type, size of file and file format. If you want to find another guitar tab for Hardcore Superstar, or another types of tabs please, look to the previous page using navigation link. This information will help you to learn your favorite music! Good luck!

File info:

Band name Hardcore Superstar
Song name Bastards
Tab type Guitar tab
Added 05/17/2008
Size 2.95 kb
File format
Views/Loads 0/0
Rating
Please, enter the code for download:

Wrong code.
I hope this is right and I'm 95% sure it is. some parts might be wrong but they
are close enough, and this isn't a hard song so if you realise my mistakes you
probably can manage to figure out the right parts yourselves

Intro
riff 1
e|---------------------------            ---------|
B|---------------------------            ---------|
G|--------10--777--12-10-5/77            -567-5-7-|
D|--------10--777--12-10-5/77   x2PM  x2 -567-5-7-|
A|--------8---555--10-8--3/55            -345-3-5-|
D|-0030560--00---00--0-------            ---------|

vers
riff 2
e|-------------------------------|
B|-------------------------------|
G|-------------------------------|
D|-------------------------------|
A|-------------------------------|
D|-003570000003570000035700000357
"I deny......................look so damn lame"

pre chorus
riff 3

e|-------------------------------------------|
B|-------------------------------------------|
G|----5---5-7----5---5-7----5---5-7----5-6-7-|
D|-77-5-7-5-7-77-5-7-5-7-77-5-7-5-7--7-5-6-7-|
A|-77-3-7-3-5-77-3-7-3-5-77-3-7-3-5--7-3-4-5-|
D|-77---7-----77---7-----77---7------7-------|
"I see you..."

chorus
riff 4

e|------------------|
B|------------------|
G|3--5---12-10-5/7--|
D|3--5---12-10-5/7--|
A|1--3---10-8--3/5--|
D|-----00--0--------|
 "I can see........"

riff 5
e|---------------------|
B|---------------------|
G|--3--5---12-10-5/7/5-|
D|--3--5---12-10-5/7/5-|
A|--1--3---10-8--3/5/3-|
D|-------00--0---------|
"The ??? feels small..."

riff4

e|------------------|
B|------------------|
G|3--5---12-10-5/7--|
D|3--5---12-10-5/7--|
A|1--3---10-8--3/5--|
D|-----00--0--------|
 "I can see........"

riff 6
e|------------------------------|
B|------------------------------|
G|--3--5-------5-6-77-5-6-7-5-7-|
D|--3--5-----7-5-6-77-5-6-7-5-7-|
A|--1--3-----7-3-4-55-3-4-5-3-5-|
D|-----------7------------------|
"The ??? feels small..."

intro/main riff: riff 1
vers: riff 2
pre chorus: riff 3
Chorus:riff 4
       riff 5
       riff 4

riff 7
e|-------|
B|-------|
G|3--5---|
D|3--5---|
A|1--3---|
D|-------|
 "The......."

riff 2
e|-------------------------------|
B|-------------------------------|
G|-------------------------------|
D|-------------------------------|
A|-------------------------------|
D|-003570000003570000035700000357|


solo (the same as the chorus)riff 4
                             riff 5
                             riff 4
                             riff 6


break
riff 1 (palm muted)
(ends in a slide by the bass)
D-------------------------------|
A--------8-5/12-15-12(let ring)-|
D-003056------------------------|

riff 1

chorus
riff 4
riff 5
riff 4
riff 6


outro solo
e|------------|
B|------------|
G|3-5-7-------| x 4 the end with same chords
D|3-5-7-------|
A|1-3-5-------|
D|------------|

Bass makes  D|-------------|   just before the final chord
            A|----------12-|
            D|12--14-15----|