Eve 6 - Bang

Welcome to the final page of bass tab for Eve 6 - Bang. Here you can do in two ways. First of all you can see Bang bass tab right on the page. Another way is to download Eve 6 Bang bass tab to your computer and to learn it later. Also, on this page you can see some information about this tab such as band name for Bang, its tab type, size of file and file format. If you want to find another bass tab for Eve 6, or another types of tabs please, look to the previous page using navigation link. This information will help you to learn your favorite music! Good luck!

File info:

Band name Eve 6
Song name Bang
Tab type Bass tab
Added 05/13/2008
Size 3.16 kb
File format
Views/Loads 0/0
Rating
Please, enter the code for download:

Wrong code.
Band: 
 
Album: Horroscope
Tabber: jbadag (jbdawg21@yahoo.com)
Tuning: Standard (EADG)

Intro:  (0:09)   1 time

E|------7777777777/10101010101010101010\5555555555\0000000000---|	
A|--------------------------------------------------------------|
D|--------------------------------------------------------------|
G|--------------------------------------------------------------|

Verse:   (0:18)   3 times

E|------7777777777/10101010101010101010\5555555555\0000000000---|	
A|--------------------------------------------------------------|
D|--------------------------------------------------------------|
G|--------------------------------------------------------------|
On the last time you play it, it becomes:E|------555555555\0000000002---|

Pre-Chorus:   (0:52)   3 times   ( ) = only on last time

E|---333333-55-55---------333333-55-55---------333333-55-55---(77-77-77)-|
A|--------------------------------------------------------------|
D|--------------------------------------------------------------|
G|--------------------------------------------------------------|

Chorus:   (1:00)   2 times

E|--0-0---5-5-5----0-0---5-5-5----0-0---5-5-5---33/77777777-----|
A|--------------------------------------------------------------|
D|--------------------------------------------------------------|
G|--------------------------------------------------------------|

Bridge:   (2:24)   4 times

E|------2---2-0----2---2-0----2---2-0----2---2-0----2---2-0----2---2-0----|
A|--------------2---------2-----------2----------2----------2----------2-----------|
D|---------------------------------------------------------------------------------|
G|---------------------------------------------------------------------------------|


End Note: 

E|--------|
A|---2---|
D|--------|
G|--------|

Song Order:

Intro=1
Verse=4
Pre-Chorus=1
Chorus=2
Verse=5
Pre-Chorus=1
Chorus=2
Bridge=4
End Note=1

Thatís itÖ. Pretty easy song, just listen for timing, and also, Iím not quite sure about the number of 
times he plays ther notes, but itís still pretty close. Hope itís good(itís my first tab). E-mail me with 
Questions or Comments or CorrectionsÖ.Rate my tabÖ.thanks!
"
var fontTamanho = '12px'

function alteraFonte()
{
fontTamanho = (fontTamanho == '12px' ? '16px' : '12px'); 
document.getElementById("spCifra").style.font = fontTamanho
}
function montaEscala(pAcorde){
	window.open('escalas.html?acorde=' + pAcorde,'escala', 'width=650, height=150, toolbars=no, statusbar=no, location=no')
}





.smalltext{font-size: 8pt}
.nota {font-size: 7pt; color:black; background-color:white}
.border {border: 1px solid #3F6A82}
sda {font-family: arial; font-size: 10pt; color: blue}
.b {font-family: arial; font-size: 10pt}
.db {color: darkblue; font-weight:bold; cursor:hand}
pre {font-family:;font-size:10pt;} 



   
     
    
      
  




  
  Eve 6 
  Bang
  










 





 




   
    
         
            
            
            Print 
		  
            
            Send toe-amail


           
		   
		  
            Add toSongbook 

			
           
            


          more Eve 6, Bang tabs at GoogleTabs
        
		

	
		Songbook